  0
SECTION
  2
HEADER
  9
$ACADVER
  1
AC1015
  9
$ACADMAINTVER
 70
     6
  9
$DWGCODEPAGE
  3
ANSI_1254
  9
$INSBASE
 10
0.0
 20
0.0
 30
0.0
  9
$EXTMIN
 10
0.0
 20
0.0
 30
0.0
  9
$EXTMAX
 10
279.4
 20
215.9
 30
0.0
  9
$LIMMIN
 10
0.0
 20
0.0
  9
$LIMMAX
 10
279.4
 20
215.9
  9
$ORTHOMODE
 70
     0
  9
$REGENMODE
 70
     1
  9
$FILLMODE
 70
     1
  9
$QTEXTMODE
 70
     0
  9
$MIRRTEXT
 70
     1
  9
$LTSCALE
 40
1.0
  9
$ATTMODE
 70
     1
  9
$TEXTSIZE
 40
3.5
  9
$TRACEWID
 40
1.0
  9
$TEXTSTYLE
  7
Standard
  9
$CLAYER
  8
0
  9
$CELTYPE
  6
ByLayer
  9
$CECOLOR
 62
   256
  9
$CELTSCALE
 40
1.0
  9
$DISPSILH
 70
     0
  9
$DIMSCALE
 40
1.0
  9
$DIMASZ
 40
3.5
  9
$DIMEXO
 40
1.0
  9
$DIMDLI
 40
3.75
  9
$DIMRND
 40
0.0
  9
$DIMDLE
 40
0.0
  9
$DIMEXE
 40
1.0
  9
$DIMTP
 40
0.0
  9
$DIMTM
 40
0.0
  9
$DIMTXT
 40
3.5
  9
$DIMCEN
 40
2.5
  9
$DIMTSZ
 40
0.0
  9
$DIMTOL
 70
     0
  9
$DIMLIM
 70
     0
  9
$DIMTIH
 70
     1
  9
$DIMTOH
 70
     1
  9
$DIMSE1
 70
     0
  9
$DIMSE2
 70
     0
  9
$DIMTAD
 70
     1
  9
$DIMZIN
 70
     0
  9
$DIMBLK
  1

  9
$DIMASO
 70
     1
  9
$DIMSHO
 70
     1
  9
$DIMPOST
  1

  9
$DIMAPOST
  1

  9
$DIMALT
 70
     0
  9
$DIMALTD
 70
     3
  9
$DIMALTF
 40
0.0393700787
  9
$DIMLFAC
 40
1.0
  9
$DIMTOFL
 70
     1
  9
$DIMTVP
 40
0.0
  9
$DIMTIX
 70
     0
  9
$DIMSOXD
 70
     0
  9
$DIMSAH
 70
     0
  9
$DIMBLK1
  1

  9
$DIMBLK2
  1

  9
$DIMSTYLE
  2
ISO-25
  9
$DIMCLRD
 70
     0
  9
$DIMCLRE
 70
     0
  9
$DIMCLRT
 70
     0
  9
$DIMTFAC
 40
1.0
  9
$DIMGAP
 40
1.524
  9
$DIMJUST
 70
     0
  9
$DIMSD1
 70
     0
  9
$DIMSD2
 70
     0
  9
$DIMTOLJ
 70
     0
  9
$DIMTZIN
 70
     0
  9
$DIMALTZ
 70
     0
  9
$DIMALTTZ
 70
     0
  9
$DIMUPT
 70
     0
  9
$DIMDEC
 70
     2
  9
$DIMTDEC
 70
     2
  9
$DIMALTU
 70
     2
  9
$DIMALTTD
 70
     3
  9
$DIMTXSTY
  7
Standard
  9
$DIMAUNIT
 70
     0
  9
$DIMADEC
 70
     2
  9
$DIMALTRND
 40
0.0
  9
$DIMAZIN
 70
     0
  9
$DIMDSEP
 70
    44
  9
$DIMATFIT
 70
     3
  9
$DIMFRAC
 70
     0
  9
$DIMLDRBLK
  1

  9
$DIMLUNIT
 70
     2
  9
$DIMLWD
 70
    -2
  9
$DIMLWE
 70
    -2
  9
$DIMTMOVE
 70
     0
  9
$LUNITS
 70
     2
  9
$LUPREC
 70
     2
  9
$SKETCHINC
 40
1.0
  9
$FILLETRAD
 40
10.0
  9
$AUNITS
 70
     0
  9
$AUPREC
 70
     2
  9
$MENU
  1
.
  9
$ELEVATION
 40
0.0
  9
$PELEVATION
 40
0.0
  9
$THICKNESS
 40
0.0
  9
$LIMCHECK
 70
     0
  9
$CHAMFERA
 40
0.0
  9
$CHAMFERB
 40
0.0
  9
$CHAMFERC
 40
0.0
  9
$CHAMFERD
 40
0.0
  9
$SKPOLY
 70
     0
  9
$TDCREATE
 40
2460390.355054479
  9
$TDUCREATE
 40
2460390.230054479
  9
$TDUPDATE
 40
2460390.355054676
  9
$TDUUPDATE
 40
2460390.230054676
  9
$TDINDWG
 40
0.0000000116
  9
$TDUSRTIMER
 40
0.0000000116
  9
$USRTIMER
 70
     1
  9
$ANGBASE
 50
0.0
  9
$ANGDIR
 70
     0
  9
$PDMODE
 70
     0
  9
$PDSIZE
 40
-1.0
  9
$PLINEWID
 40
0.0
  9
$SPLFRAME
 70
     0
  9
$SPLINETYPE
 70
     6
  9
$SPLINESEGS
 70
     8
  9
$HANDSEED
  5
10F
  9
$SURFTAB1
 70
     6
  9
$SURFTAB2
 70
     6
  9
$SURFTYPE
 70
     6
  9
$SURFU
 70
     6
  9
$SURFV
 70
     6
  9
$UCSBASE
  2

  9
$UCSNAME
  2

  9
$UCSORG
 10
0.0
 20
0.0
 30
0.0
  9
$UCSXDIR
 10
1.0
 20
0.0
 30
0.0
  9
$UCSYDIR
 10
0.0
 20
1.0
 30
0.0
  9
$UCSORTHOREF
  2

  9
$UCSORTHOVIEW
 70
     0
  9
$UCSORGTOP
 10
0.0
 20
0.0
 30
0.0
  9
$UCSORGBOTTOM
 10
0.0
 20
0.0
 30
0.0
  9
$UCSORGLEFT
 10
0.0
 20
0.0
 30
0.0
  9
$UCSORGRIGHT
 10
0.0
 20
0.0
 30
0.0
  9
$UCSORGFRONT
 10
0.0
 20
0.0
 30
0.0
  9
$UCSORGBACK
 10
0.0
 20
0.0
 30
0.0
  9
$PUCSBASE
  2

  9
$PUCSNAME
  2

  9
$PUCSORG
 10
0.0
 20
0.0
 30
0.0
  9
$PUCSXDIR
 10
1.0
 20
0.0
 30
0.0
  9
$PUCSYDIR
 10
0.0
 20
1.0
 30
0.0
  9
$PUCSORTHOREF
  2

  9
$PUCSORTHOVIEW
 70
     0
  9
$PUCSORGTOP
 10
0.0
 20
0.0
 30
0.0
  9
$PUCSORGBOTTOM
 10
0.0
 20
0.0
 30
0.0
  9
$PUCSORGLEFT
 10
0.0
 20
0.0
 30
0.0
  9
$PUCSORGRIGHT
 10
0.0
 20
0.0
 30
0.0
  9
$PUCSORGFRONT
 10
0.0
 20
0.0
 30
0.0
  9
$PUCSORGBACK
 10
0.0
 20
0.0
 30
0.0
  9
$USERI1
 70
     0
  9
$USERI2
 70
     0
  9
$USERI3
 70
     0
  9
$USERI4
 70
     0
  9
$USERI5
 70
     0
  9
$USERR1
 40
0.0
  9
$USERR2
 40
0.0
  9
$USERR3
 40
0.0
  9
$USERR4
 40
0.0
  9
$USERR5
 40
0.0
  9
$WORLDVIEW
 70
     1
  9
$SHADEDGE
 70
     3
  9
$SHADEDIF
 70
    70
  9
$TILEMODE
 70
     1
  9
$MAXACTVP
 70
    64
  9
$PINSBASE
 10
0.0
 20
0.0
 30
0.0
  9
$PLIMCHECK
 70
     0
  9
$PEXTMIN
 10
1.0000000000E+20
 20
1.0000000000E+20
 30
1.0000000000E+20
  9
$PEXTMAX
 10
-1.0000000000E+20
 20
-1.0000000000E+20
 30
-1.0000000000E+20
  9
$PLIMMIN
 10
0.0
 20
0.0
  9
$PLIMMAX
 10
420.0
 20
297.0
  9
$UNITMODE
 70
     0
  9
$VISRETAIN
 70
     1
  9
$PLINEGEN
 70
     0
  9
$PSLTSCALE
 70
     1
  9
$TREEDEPTH
 70
  3020
  9
$CMLSTYLE
  2
Standard
  9
$CMLJUST
 70
     0
  9
$CMLSCALE
 40
20.0
  9
$PROXYGRAPHICS
 70
     1
  9
$MEASUREMENT
 70
     1
  9
$CELWEIGHT
370
    -1
  9
$ENDCAPS
280
     0
  9
$JOINSTYLE
280
     0
  9
$LWDISPLAY
290
     1
  9
$INSUNITS
 70
     4
  9
$HYPERLINKBASE
  1

  9
$STYLESHEET
  1

  9
$XEDIT
290
     1
  9
$CEPSNTYPE
380
     0
  9
$PSTYLEMODE
290
     1
  9
$FINGERPRINTGUID
  2
{09e1a95e-28e6-483b-95c2-9877b1489f7b}
  9
$VERSIONGUID
  2
{FAEB1C32-E019-11D5-929B-00C0DF256EC4}
  9
$EXTNAMES
290
     1
  9
$PSVPSCALE
 40
0.0
  9
$OLESTARTUP
290
     0
  0
ENDSEC
  0
SECTION
  2
CLASSES
  0
CLASS
  1
ACDBDICTIONARYWDFLT
  2
AcDbDictionaryWithDefault
  3
ObjectDBX Classes
 90
        0
280
     0
281
     0
  0
CLASS
  1
VISUALSTYLE
  2
AcDbVisualStyle
  3
ObjectDBX Classes
 90
     4095
280
     0
281
     0
  0
CLASS
  1
MATERIAL
  2
AcDbMaterial
  3
ObjectDBX Classes
 90
     1153
280
     0
281
     0
  0
CLASS
  1
SCALE
  2
AcDbScale
  3
ObjectDBX Classes
 90
     1153
280
     0
281
     0
  0
CLASS
  1
TABLESTYLE
  2
AcDbTableStyle
  3
ObjectDBX Classes
 90
     4095
280
     0
281
     0
  0
CLASS
  1
MLEADERSTYLE
  2
AcDbMLeaderStyle
  3
ACDB_MLEADERSTYLE_CLASS
 90
     4095
280
     0
281
     0
  0
CLASS
  1
SUN
  2
AcDbSun
  3
SCENEOE
 90
     1153
280
     0
281
     0
  0
CLASS
  1
ACDBPLACEHOLDER
  2
AcDbPlaceHolder
  3
ObjectDBX Classes
 90
        0
280
     0
281
     0
  0
CLASS
  1
LAYOUT
  2
AcDbLayout
  3
ObjectDBX Classes
 90
        0
280
     0
281
     0
  0
ENDSEC
  0
SECTION
  2
TABLES
  0
TABLE
  2
VPORT
  5
8
330
0
100
AcDbSymbolTable
 70
     1
  0
VPORT
  5
29
330
8
100
AcDbSymbolTableRecord
100
AcDbViewportTableRecord
  2
*Active
 70
     0
 10
0.0
 20
0.0
 11
1.0
 21
1.0
 12
139.7
 22
107.95
 13
0.0
 23
0.0
 14
10.0
 24
10.0
 15
10.0
 25
10.0
 16
0.0
 26
0.0
 36
1.0
 17
0.0
 27
0.0
 37
0.0
 40
215.9
 41
1.2941176471
 42
50.0
 43
0.0
 44
0.0
 50
0.0
 51
0.0
 71
     0
 72
  2000
 73
     1
 74
     3
 75
     0
 76
     0
 77
     0
 78
     0
281
     0
 65
     1
110
0.0
120
0.0
130
0.0
111
1.0
121
0.0
131
0.0
112
0.0
122
1.0
132
0.0
 79
     0
146
0.0
  0
ENDTAB
  0
TABLE
  2
LTYPE
  5
5
330
0
100
AcDbSymbolTable
 70
     6
  0
LTYPE
  5
14
330
5
100
AcDbSymbolTableRecord
100
AcDbLinetypeTableRecord
  2
ByBlock
 70
     0
  3

 72
    65
 73
     0
 40
0.0
  0
LTYPE
  5
15
330
5
100
AcDbSymbolTableRecord
100
AcDbLinetypeTableRecord
  2
ByLayer
 70
     0
  3

 72
    65
 73
     0
 40
0.0
  0
LTYPE
  5
16
330
5
100
AcDbSymbolTableRecord
100
AcDbLinetypeTableRecord
  2
Continuous
 70
     0
  3
Solid line
 72
    65
 73
     0
 40
0.0
  0
LTYPE
  5
6E
330
5
100
AcDbSymbolTableRecord
100
AcDbLinetypeTableRecord
  2
HIDDEN
 70
     0
  3
Hidden __ __ __ __ __ __ __ __ __ __ __ __ __ __
 72
    65
 73
     2
 40
1.905
 49
1.27
 74
     0
 49
-0.635
 74
     0
  0
LTYPE
  5
6F
330
5
100
AcDbSymbolTableRecord
100
AcDbLinetypeTableRecord
  2
PHANTOM
 70
     0
  3
Phantom ______  __  __  ______  __  __  ______
 72
    65
 73
     6
 40
12.7
 49
6.35
 74
     0
 49
-1.27
 74
     0
 49
1.27
 74
     0
 49
-1.27
 74
     0
 49
1.27
 74
     0
 49
-1.27
 74
     0
  0
LTYPE
  5
70
330
5
100
AcDbSymbolTableRecord
100
AcDbLinetypeTableRecord
  2
CENTER
 70
     0
  3
Center ____ _ ____ _ ____ _ ____ _ ____ _ ____
 72
    65
 73
     4
 40
10.16
 49
6.35
 74
     0
 49
-1.27
 74
     0
 49
1.27
 74
     0
 49
-1.27
 74
     0
  0
LTYPE
  5
71
330
5
100
AcDbSymbolTableRecord
100
AcDbLinetypeTableRecord
  2
CENTERX2
 70
     0
  3
Center (2x) ________  __  ________  __  _____
 72
    65
 73
     4
 40
20.32
 49
12.7
 74
     0
 49
-2.54
 74
     0
 49
2.54
 74
     0
 49
-2.54
 74
     0
  0
LTYPE
  5
72
330
5
100
AcDbSymbolTableRecord
100
AcDbLinetypeTableRecord
  2
DOT2
 70
     0
  3
Dot (.5x) ........................................
 72
    65
 73
     2
 40
0.635
 49
0.0
 74
     0
 49
-0.635
 74
     0
  0
ENDTAB
  0
TABLE
  2
LAYER
  5
2
330
0
100
AcDbSymbolTable
 70
    17
  0
LAYER
  5
10
330
2
100
AcDbSymbolTableRecord
100
AcDbLayerTableRecord
  2
0
 70
     0
 62
     7
  6
Continuous
370
    -3
390
F
  0
LAYER
  5
73
330
2
100
AcDbSymbolTableRecord
100
AcDbLayerTableRecord
  2
FORMAT
 70
     0
 62
     7
  6
Continuous
370
    -3
390
F
  0
LAYER
  5
74
330
2
100
AcDbSymbolTableRecord
100
AcDbLayerTableRecord
  2
YARDIMCI_GEOMETRI
 70
     0
 62
    -6
  6
Continuous
290
     0
370
    -3
390
F
  0
LAYER
  5
75
330
2
100
AcDbSymbolTableRecord
100
AcDbLayerTableRecord
  2
SAYFA_CERCEVESI
 70
     0
 62
     7
  6
Continuous
370
    25
390
F
  0
LAYER
  5
76
330
2
100
AcDbSymbolTableRecord
100
AcDbLayerTableRecord
  2
ANTET
 70
     0
 62
     7
  6
Continuous
370
    -3
390
F
  0
LAYER
  5
77
330
2
100
AcDbSymbolTableRecord
100
AcDbLayerTableRecord
  2
OLCU
 70
     0
 62
   150
  6
Continuous
370
    -3
390
F
  0
LAYER
  5
78
330
2
100
AcDbSymbolTableRecord
100
AcDbLayerTableRecord
  2
METIN
 70
     0
 62
    96
  6
Continuous
370
    -3
390
F
  0
LAYER
  5
79
330
2
100
AcDbSymbolTableRecord
100
AcDbLayerTableRecord
  2
BALON
 70
     0
 62
     5
  6
Continuous
370
    -3
390
F
  0
LAYER
  5
7A
330
2
100
AcDbSymbolTableRecord
100
AcDbLayerTableRecord
  2
VURGU
 70
     0
 62
     7
  6
Continuous
370
    -3
390
F
  0
LAYER
  5
7B
330
2
100
AcDbSymbolTableRecord
100
AcDbLayerTableRecord
  2
SILIK
 70
     0
 62
     7
  6
Continuous
370
    -3
390
F
  0
LAYER
  5
7C
330
2
100
AcDbSymbolTableRecord
100
AcDbLayerTableRecord
  2
MODEL
 70
     0
 62
     7
  6
Continuous
370
    -3
390
F
  0
LAYER
  5
7D
330
2
100
AcDbSymbolTableRecord
100
AcDbLayerTableRecord
  2
DETAYLANDıRMA
 70
     0
 62
   190
  6
Continuous
370
    -3
390
F
  0
LAYER
  5
7E
330
2
100
AcDbSymbolTableRecord
100
AcDbLayerTableRecord
  2
TOLERANS
 70
     0
 62
   230
  6
Continuous
370
    -3
390
F
  0
LAYER
  5
7F
330
2
100
AcDbSymbolTableRecord
100
AcDbLayerTableRecord
  2
MERKEZ_CIZGILERI
 70
     0
 62
    30
  6
Continuous
370
    -3
390
F
  0
LAYER
  5
80
330
2
100
AcDbSymbolTableRecord
100
AcDbLayerTableRecord
  2
KESIT-DETAY_CIZGILERI
 70
     0
 62
     7
  6
Continuous
370
    -3
390
F
  0
LAYER
  5
81
330
2
100
AcDbSymbolTableRecord
100
AcDbLayerTableRecord
  2
\U+041E\U+0421\U+0415\U+0412\U+042B\U+0415
 70
     0
 62
     7
  6
Continuous
370
    -3
390
F
  0
LAYER
  5
82
330
2
100
AcDbSymbolTableRecord
100
AcDbLayerTableRecord
  2
\U+0412\U+041E\U+0414\U+042F\U+041D\U+042B\U+0415_\U+0417\U+041D\U+0410\U+041A\U+0418
 70
     0
 62
    11
  6
Continuous
370
    -3
390
F
  0
ENDTAB
  0
TABLE
  2
STYLE
  5
3
330
0
100
AcDbSymbolTable
 70
     1
  0
STYLE
  5
11
330
3
100
AcDbSymbolTableRecord
100
AcDbTextStyleTableRecord
  2
Standard
 70
     0
 40
0.0
 41
1.0
 50
0.0
 71
     0
 42
3.5
  3
txt
  4

  0
ENDTAB
  0
TABLE
  2
VIEW
  5
6
330
0
100
AcDbSymbolTable
 70
     0
  0
ENDTAB
  0
TABLE
  2
UCS
  5
7
330
0
100
AcDbSymbolTable
 70
     0
  0
ENDTAB
  0
TABLE
  2
APPID
  5
9
330
0
100
AcDbSymbolTable
 70
     1
  0
APPID
  5
12
330
9
100
AcDbSymbolTableRecord
100
AcDbRegAppTableRecord
  2
ACAD
 70
     0
  0
ENDTAB
  0
TABLE
  2
DIMSTYLE
  5
A
330
0
100
AcDbSymbolTable
 70
     1
100
AcDbDimStyleTable
  0
DIMSTYLE
105
27
330
A
100
AcDbSymbolTableRecord
100
AcDbDimStyleTableRecord
  2
ISO-25
 70
     0
 41
2.5
 42
0.625
 43
3.75
 44
1.25
 73
     0
 74
     0
 77
     1
 78
     8
140
2.5
141
2.5
143
0.0393700787
147
0.625
171
     3
172
     1
178
     0
271
     2
272
     2
274
     3
278
    44
283
     0
284
     8
340
11
  0
ENDTAB
  0
TABLE
  2
BLOCK_RECORD
  5
1
330
0
100
AcDbSymbolTable
 70
     4
  0
BLOCK_RECORD
  5
1F
330
1
100
AcDbSymbolTableRecord
100
AcDbBlockTableRecord
  2
*Model_Space
340
22
  0
BLOCK_RECORD
  5
1B
330
1
100
AcDbSymbolTableRecord
100
AcDbBlockTableRecord
  2
*Paper_Space
340
1E
  0
BLOCK_RECORD
  5
23
330
1
100
AcDbSymbolTableRecord
100
AcDbBlockTableRecord
  2
*Paper_Space0
340
26
  0
BLOCK_RECORD
  5
8C
330
1
100
AcDbSymbolTableRecord
100
AcDbBlockTableRecord
  2
SW_CENTERMARKSYMBOL_0
340
0
102
{BLKREFS
331
97
102
}
  0
BLOCK_RECORD
  5
DE
330
1
100
AcDbSymbolTableRecord
100
AcDbBlockTableRecord
  2
SW_CENTERMARKSYMBOL_1
340
0
102
{BLKREFS
331
E9
102
}
  0
BLOCK_RECORD
  5
EA
330
1
100
AcDbSymbolTableRecord
100
AcDbBlockTableRecord
  2
SW_CENTERMARKSYMBOL_2
340
0
102
{BLKREFS
331
F5
102
}
  0
ENDTAB
  0
ENDSEC
  0
SECTION
  2
BLOCKS
  0
BLOCK
  5
20
330
1F
100
AcDbEntity
  8
0
100
AcDbBlockBegin
  2
*Model_Space
 70
     0
 10
0.0
 20
0.0
 30
0.0
  3
*Model_Space
  1

  0
ENDBLK
  5
21
330
1F
100
AcDbEntity
  8
0
100
AcDbBlockEnd
  0
BLOCK
  5
1C
330
1B
100
AcDbEntity
 67
     1
  8
0
100
AcDbBlockBegin
  2
*Paper_Space
 70
     0
 10
0.0
 20
0.0
 30
0.0
  3
*Paper_Space
  1

  0
ENDBLK
  5
1D
330
1B
100
AcDbEntity
 67
     1
  8
0
100
AcDbBlockEnd
  0
BLOCK
  5
24
330
23
100
AcDbEntity
  8
0
100
AcDbBlockBegin
  2
*Paper_Space0
 70
     0
 10
0.0
 20
0.0
 30
0.0
  3
*Paper_Space0
  1

  0
ENDBLK
  5
25
330
23
100
AcDbEntity
  8
0
100
AcDbBlockEnd
  0
BLOCK
  5
8D
330
8C
100
AcDbEntity
  8
0
100
AcDbBlockBegin
  2
SW_CENTERMARKSYMBOL_0
 70
     0
 10
0.0
 20
0.0
 30
0.0
  3
SW_CENTERMARKSYMBOL_0
  1

  0
LINE
  5
8F
330
8C
100
AcDbEntity
  8
FORMAT
 62
     0
100
AcDbLine
 10
0.0
 20
0.0
 30
0.0
 11
0.0
 21
2.5
 31
0.0
  0
LINE
  5
90
330
8C
100
AcDbEntity
  8
FORMAT
 62
     0
100
AcDbLine
 10
0.0
 20
0.0
 30
0.0
 11
-2.5
 21
0.0
 31
0.0
  0
LINE
  5
91
330
8C
100
AcDbEntity
  8
FORMAT
 62
     0
100
AcDbLine
 10
0.0
 20
0.0
 30
0.0
 11
0.0
 21
-2.5
 31
0.0
  0
LINE
  5
92
330
8C
100
AcDbEntity
  8
FORMAT
 62
     0
100
AcDbLine
 10
0.0
 20
0.0
 30
0.0
 11
2.5
 21
0.0
 31
0.0
  0
LINE
  5
93
330
8C
100
AcDbEntity
  8
FORMAT
 62
     0
100
AcDbLine
 10
0.0
 20
5.0
 30
0.0
 11
0.0
 21
72.95
 31
0.0
  0
LINE
  5
94
330
8C
100
AcDbEntity
  8
FORMAT
 62
     0
100
AcDbLine
 10
-5.0
 20
0.0
 30
0.0
 11
-72.95
 21
0.0
 31
0.0
  0
LINE
  5
95
330
8C
100
AcDbEntity
  8
FORMAT
 62
     0
100
AcDbLine
 10
0.0
 20
-5.0
 30
0.0
 11
0.0
 21
-72.95
 31
0.0
  0
LINE
  5
96
330
8C
100
AcDbEntity
  8
FORMAT
 62
     0
100
AcDbLine
 10
5.0
 20
0.0
 30
0.0
 11
72.95
 21
0.0
 31
0.0
  0
ENDBLK
  5
8E
330
8C
100
AcDbEntity
  8
0
100
AcDbBlockEnd
  0
BLOCK
  5
DF
330
DE
100
AcDbEntity
  8
0
100
AcDbBlockBegin
  2
SW_CENTERMARKSYMBOL_1
 70
     0
 10
0.0
 20
0.0
 30
0.0
  3
SW_CENTERMARKSYMBOL_1
  1

  0
LINE
  5
E1
330
DE
100
AcDbEntity
  8
FORMAT
 62
     0
100
AcDbLine
 10
0.0
 20
0.0
 30
0.0
 11
0.0
 21
2.5
 31
0.0
  0
LINE
  5
E2
330
DE
100
AcDbEntity
  8
FORMAT
 62
     0
100
AcDbLine
 10
0.0
 20
0.0
 30
0.0
 11
-2.5
 21
0.0
 31
0.0
  0
LINE
  5
E3
330
DE
100
AcDbEntity
  8
FORMAT
 62
     0
100
AcDbLine
 10
0.0
 20
0.0
 30
0.0
 11
0.0
 21
-2.5
 31
0.0
  0
LINE
  5
E4
330
DE
100
AcDbEntity
  8
FORMAT
 62
     0
100
AcDbLine
 10
0.0
 20
0.0
 30
0.0
 11
2.5
 21
0.0
 31
0.0
  0
LINE
  5
E5
330
DE
100
AcDbEntity
  8
FORMAT
 62
     0
100
AcDbLine
 10
0.0
 20
5.0
 30
0.0
 11
0.0
 21
9.5
 31
0.0
  0
LINE
  5
E6
330
DE
100
AcDbEntity
  8
FORMAT
 62
     0
100
AcDbLine
 10
-5.0
 20
0.0
 30
0.0
 11
-9.5
 21
0.0
 31
0.0
  0
LINE
  5
E7
330
DE
100
AcDbEntity
  8
FORMAT
 62
     0
100
AcDbLine
 10
0.0
 20
-5.0
 30
0.0
 11
0.0
 21
-9.5
 31
0.0
  0
LINE
  5
E8
330
DE
100
AcDbEntity
  8
FORMAT
 62
     0
100
AcDbLine
 10
5.0
 20
0.0
 30
0.0
 11
9.5
 21
0.0
 31
0.0
  0
ENDBLK
  5
E0
330
DE
100
AcDbEntity
  8
0
100
AcDbBlockEnd
  0
BLOCK
  5
EB
330
EA
100
AcDbEntity
  8
0
100
AcDbBlockBegin
  2
SW_CENTERMARKSYMBOL_2
 70
     0
 10
0.0
 20
0.0
 30
0.0
  3
SW_CENTERMARKSYMBOL_2
  1

  0
LINE
  5
ED
330
EA
100
AcDbEntity
  8
FORMAT
 62
     0
100
AcDbLine
 10
0.0
 20
0.0
 30
0.0
 11
0.0
 21
2.5
 31
0.0
  0
LINE
  5
EE
330
EA
100
AcDbEntity
  8
FORMAT
 62
     0
100
AcDbLine
 10
0.0
 20
0.0
 30
0.0
 11
-2.5
 21
0.0
 31
0.0
  0
LINE
  5
EF
330
EA
100
AcDbEntity
  8
FORMAT
 62
     0
100
AcDbLine
 10
0.0
 20
0.0
 30
0.0
 11
0.0
 21
-2.5
 31
0.0
  0
LINE
  5
F0
330
EA
100
AcDbEntity
  8
FORMAT
 62
     0
100
AcDbLine
 10
0.0
 20
0.0
 30
0.0
 11
2.5
 21
0.0
 31
0.0
  0
LINE
  5
F1
330
EA
100
AcDbEntity
  8
FORMAT
 62
     0
100
AcDbLine
 10
0.0
 20
5.0
 30
0.0
 11
0.0
 21
9.5
 31
0.0
  0
LINE
  5
F2
330
EA
100
AcDbEntity
  8
FORMAT
 62
     0
100
AcDbLine
 10
-5.0
 20
0.0
 30
0.0
 11
-9.5
 21
0.0
 31
0.0
  0
LINE
  5
F3
330
EA
100
AcDbEntity
  8
FORMAT
 62
     0
100
AcDbLine
 10
0.0
 20
-5.0
 30
0.0
 11
0.0
 21
-9.5
 31
0.0
  0
LINE
  5
F4
330
EA
100
AcDbEntity
  8
FORMAT
 62
     0
100
AcDbLine
 10
5.0
 20
0.0
 30
0.0
 11
9.5
 21
0.0
 31
0.0
  0
ENDBLK
  5
EC
330
EA
100
AcDbEntity
  8
0
100
AcDbBlockEnd
  0
ENDSEC
  0
SECTION
  2
ENTITIES
  0
LINE
  5
83
330
1F
100
AcDbEntity
  8
0
  6
Continuous
 62
     7
370
    25
100
AcDbLine
 10
146.3222000691
 20
185.7949239073
 30
0.0
 11
146.3222000691
 21
200.2606720556
 31
0.0
  0
LINE
  5
84
330
1F
100
AcDbEntity
  8
0
  6
Continuous
 62
     7
370
    25
100
AcDbLine
 10
132.3222000691
 20
200.2606720556
 30
0.0
 11
132.3222000691
 21
185.7932194824
 31
0.0
  0
CIRCLE
  5
85
330
1F
100
AcDbEntity
  8
0
  6
Continuous
 62
     7
370
    25
100
AcDbCircle
 10
139.3222000691
 20
103.5206720556
 30
0.0
 40
82.25
  0
ARC
  5
86
330
1F
100
AcDbEntity
  8
0
  6
Continuous
 62
     7
370
    25
100
AcDbCircle
 10
139.3222000691
 20
103.5206720556
 30
0.0
 40
83.25000000000006
100
AcDbArc
 50
94.8233582001
 51
180.0
  0
ARC
  5
87
330
1F
100
AcDbEntity
  8
0
  6
Continuous
 62
     7
370
    25
100
AcDbCircle
 10
139.3222000691
 20
103.5206720556
 30
0.0
 40
83.25000000000006
100
AcDbArc
 50
180.0
 51
85.1766417999
  0
SPLINE
  5
88
330
1F
100
AcDbEntity
  8
0
  6
Continuous
 62
     7
370
    25
100
AcDbSpline
210
0.0
220
0.0
230
1.0
 70
     8
 71
     3
 72
    21
 73
    17
 74
     0
 42
0.00000001
 43
0.00000001
 40
0.0
 40
0.0
 40
0.0
 40
0.0
 40
0.0705009682877288
 40
0.1430450373416685
 40
0.2135463943846351
 40
0.2860961965839539
 40
0.3565251207977214
 40
0.4289999958125384
 40
0.4993754492919322
 40
0.571786871106841
 40
0.6422517094155793
 40
0.7147564406542676
 40
0.7852747765021284
 40
0.8578449890875177
 40
0.9282371286873499
 40
1.0
 40
1.0
 40
1.0
 40
1.0
 10
144.2841929031823
 20
185.8168262982055
 30
0.0
 10
143.9973180470722
 20
185.8264339061379
 30
0.0
 10
143.4152547718959
 20
185.8459275481238
 30
0.0
 10
142.3931925802239
 20
185.8745528489769
 30
0.0
 10
141.2842473987698
 20
185.8972631098419
 30
0.0
 10
140.1274208893756
 20
185.9105850584384
 30
0.0
 10
138.9381631100801
 20
185.9126789272474
 30
0.0
 10
137.7710388419266
 20
185.9032426809674
 30
0.0
 10
136.6379238145823
 20
185.8835270315994
 30
0.0
 10
135.5906348392806
 20
185.8567782398162
 30
0.0
 10
134.6395232044918
 20
185.8266595254905
 30
0.0
 10
133.8287812768174
 20
185.7984843607105
 30
0.0
 10
133.1658977729367
 20
185.7766601109717
 30
0.0
 10
132.6870837435095
 20
185.7664071704774
 30
0.0
 10
132.3795447588005
 20
185.7694252061476
 30
0.0
 10
132.3420657730083
 20
185.7852372344182
 30
0.0
 10
132.3231455842856
 20
185.7932194824072
 30
0.0
  0
SPLINE
  5
89
330
1F
100
AcDbEntity
  8
0
  6
Continuous
 62
     7
370
    25
100
AcDbSpline
210
0.0
220
0.0
230
1.0
 70
     8
 71
     3
 72
    12
 73
     8
 74
     0
 42
0.00000001
 43
0.00000001
 40
0.0
 40
0.0
 40
0.0
 40
0.0
 40
0.0740175129728736
 40
0.2926406078136631
 40
0.5044369656845199
 40
0.7223682031884434
 40
1.0
 40
1.0
 40
1.0
 40
1.0
 10
146.300260228244
 20
185.7949239072699
 30
0.0
 10
146.3061681021983
 20
185.7911766359237
 30
0.0
 10
146.3295258692384
 20
185.7763611723889
 30
0.0
 10
146.1668205849417
 20
185.7676144376739
 30
0.0
 10
145.8100378033071
 20
185.7683036131818
 30
0.0
 10
145.2182242508441
 20
185.7846093517016
 30
0.0
 10
144.6195764195874
 20
185.8052581288572
 30
0.0
 10
144.2841929031823
 20
185.8168262982055
 30
0.0
  0
CIRCLE
  5
8A
330
1F
100
AcDbEntity
  8
0
  6
Continuous
 62
     7
370
    25
100
AcDbCircle
 10
139.3222000691
 20
103.5206720556
 30
0.0
 40
70.44999999999999
  0
LINE
  5
8B
330
1F
100
AcDbEntity
  8
0
  6
Continuous
 62
     7
370
    25
100
AcDbLine
 10
146.3222000691
 20
200.2606720556
 30
0.0
 11
132.3222000691
 21
200.2606720556
 31
0.0
  0
INSERT
  5
97
330
1F
100
AcDbEntity
  8
FORMAT
 62
     7
100
AcDbBlockReference
  2
SW_CENTERMARKSYMBOL_0
 10
139.3222000691
 20
103.5206720556
 30
0.0
  0
ARC
  5
98
330
1F
100
AcDbEntity
  8
0
  6
Continuous
 62
     7
370
    25
100
AcDbCircle
 10
355.3970743512
 20
-2159.8543279444
 30
0.0
 40
2346.625000000004
100
AcDbArc
 50
91.5500424538
 51
91.6727506508
  0
ARC
  5
99
330
1F
100
AcDbEntity
  8
0
  6
Continuous
 62
     7
370
    25
100
AcDbCircle
 10
355.3970743512
 20
-2159.8543279444
 30
0.0
 40
2346.625000000004
100
AcDbArc
 50
90.0
 51
91.2091737256
  0
ARC
  5
9A
330
1F
100
AcDbEntity
  8
0
  6
Continuous
 62
     7
370
    25
100
AcDbCircle
 10
355.3970743512
 20
2366.8956720556
 30
0.0
 40
2346.625000000005
100
AcDbArc
 50
268.3272493492
 51
270.0
  0
LINE
  5
9B
330
1F
100
AcDbEntity
  8
0
  6
Continuous
 62
     7
370
    25
100
AcDbLine
 10
355.3970743512
 20
20.2706720556
 30
0.0
 11
380.3970743512
 21
20.2706720556
 31
0.0
  0
LINE
  5
9C
330
1F
100
AcDbEntity
  8
0
  6
Continuous
 62
     7
370
    25
100
AcDbLine
 10
380.3970743512
 20
186.7706720556
 30
0.0
 11
355.3970743512
 21
186.7706720556
 31
0.0
  0
ARC
  5
9D
330
1F
100
AcDbEntity
  8
0
  6
Continuous
 62
     7
370
    25
100
AcDbCircle
 10
380.3970743512
 20
-2159.8543279444
 30
0.0
 40
2346.625000000004
100
AcDbArc
 50
88.7907582223
 51
90.0
  0
ARC
  5
9E
330
1F
100
AcDbEntity
  8
0
  6
Continuous
 62
     7
370
    25
100
AcDbCircle
 10
380.3970743512
 20
-2159.8543279444
 30
0.0
 40
2346.625000000004
100
AcDbArc
 50
88.3272493492
 51
88.4498904967
  0
ARC
  5
9F
330
1F
100
AcDbEntity
  8
0
  6
Continuous
 62
     7
370
    25
100
AcDbCircle
 10
380.3970743512
 20
2366.8956720556
 30
0.0
 40
2346.625000000005
100
AcDbArc
 50
270.0
 51
271.6727506508
  0
LINE
  5
A0
330
1F
100
AcDbEntity
  8
0
  6
Continuous
 62
     7
370
    25
100
AcDbLine
 10
305.8970743512
 20
186.2464746914
 30
0.0
 11
305.8970743512
 21
200.2606720556
 31
0.0
  0
LINE
  5
A1
330
1F
100
AcDbEntity
  8
0
  6
Continuous
 62
     7
370
    25
100
AcDbLine
 10
291.8970743512
 20
200.2606720556
 30
0.0
 11
291.8970743512
 21
185.9099819624
 31
0.0
  0
LINE
  5
A2
330
1F
100
AcDbEntity
  8
0
  6
Continuous
 62
     7
370
    25
100
AcDbLine
 10
443.8970743512
 20
185.9101452987
 30
0.0
 11
443.8970743512
 21
200.2606720556
 31
0.0
  0
LINE
  5
A3
330
1F
100
AcDbEntity
  8
0
  6
Continuous
 62
     7
370
    25
100
AcDbLine
 10
429.8970743512
 20
200.2606720556
 30
0.0
 11
429.8970743512
 21
186.2461846743
 31
0.0
  0
LINE
  5
A4
330
1F
100
AcDbEntity
  8
0
  6
Continuous
 62
     7
370
    25
100
AcDbLine
 10
286.8970743512
 20
103.5206720556
 30
0.0
 11
286.8970743512
 21
185.7706720556
 31
0.0
  0
LINE
  5
A5
330
1F
100
AcDbEntity
  8
0
  6
Continuous
 62
     7
370
    25
100
AcDbLine
 10
286.8970743512
 20
21.2706720556
 30
0.0
 11
286.8970743512
 21
103.5206720556
 31
0.0
  0
SPLINE
  5
A6
330
1F
100
AcDbEntity
  8
0
  6
Continuous
 62
     7
370
    25
100
AcDbSpline
210
0.0
220
0.0
230
1.0
 70
     8
 71
     3
 72
    27
 73
    23
 74
     0
 42
0.00000001
 43
0.00000001
 40
0.0
 40
0.0
 40
0.0
 40
0.0
 40
0.0150073986658656
 40
0.0692707567516643
 40
0.1218884296984265
 40
0.17602246182603
 40
0.2288187516789047
 40
0.283132463688433
 40
0.3361626868497019
 40
0.3907300153412254
 40
0.443759780125025
 40
0.4983383872807736
 40
0.551175220069815
 40
0.6055508181594749
 40
0.6582842299827711
 40
0.712542220761714
 40
0.7653630636129183
 40
0.8197097982537989
 40
0.8726286100961737
 40
0.927083831040634
 40
0.9799665492964502
 40
1.0
 40
1.0
 40
1.0
 40
1.0
 10
305.8775152103192
 20
186.2464709431956
 30
0.0
 10
305.8832127392396
 20
186.2470719535274
 30
0.0
 10
305.9095112436453
 20
186.2498460812375
 30
0.0
 10
305.7576575674213
 20
186.2337828513668
 30
0.0
 10
305.418816452276
 20
186.1989466435298
 30
0.0
 10
304.8863184443338
 20
186.146840451668
 30
0.0
 10
304.1834471574023
 20
186.08318906897
 30
0.0
 10
303.335717171195
 20
186.014070009031
 30
0.0
 10
302.3529505960435
 20
185.9445257565273
 30
0.0
 10
301.2793000480954
 20
185.8815285568141
 30
0.0
 10
300.127174902917
 20
185.829070499692
 30
0.0
 10
298.9513786074086
 20
185.7917158110418
 30
0.0
 10
297.7643676700362
 20
185.7706088597046
 30
0.0
 10
296.6220907164296
 20
185.7660619560296
 30
0.0
 10
295.534852649135
 20
185.7760830130398
 30
0.0
 10
294.5522674073211
 20
185.7971939079012
 30
0.0
 10
293.6833819164067
 20
185.8253687349309
 30
0.0
 10
292.9691973164988
 20
185.8552195285481
 30
0.0
 10
292.4132837322263
 20
185.8826335070464
 30
0.0
 10
292.0585969750745
 20
185.9020159497017
 30
0.0
 10
291.891646999126
 20
185.9116673733558
 30
0.0
 10
291.9145830075213
 20
185.9103446155563
 30
0.0
 10
291.9208845919308
 20
185.9099811926894
 30
0.0
  0
LINE
  5
A7
330
1F
100
AcDbEntity
  8
0
  6
Continuous
 62
     7
370
    25
100
AcDbLine
 10
448.8970743512
 20
103.5206720556
 30
0.0
 11
448.8970743512
 21
185.7706720556
 31
0.0
  0
LINE
  5
A8
330
1F
100
AcDbEntity
  8
0
  6
Continuous
 62
     7
370
    25
100
AcDbLine
 10
448.8970743512
 20
21.2706720556
 30
0.0
 11
448.8970743512
 21
103.5206720556
 31
0.0
  0
SPLINE
  5
A9
330
1F
100
AcDbEntity
  8
0
  6
Continuous
 62
     7
370
    25
100
AcDbSpline
210
0.0
220
0.0
230
1.0
 70
     8
 71
     3
 72
    27
 73
    23
 74
     0
 42
0.00000001
 43
0.00000001
 40
0.0
 40
0.0
 40
0.0
 40
0.0
 40
0.0168925346376729
 40
0.0712809623962096
 40
0.1240938891760866
 40
0.1784346987803519
 40
0.2313147039833724
 40
0.2857255372041446
 40
0.3386456893828064
 40
0.3931056627710345
 40
0.4459311115712096
 40
0.5002941738502915
 40
0.5530280390906643
 40
0.607286272098612
 40
0.6601167612516587
 40
0.7144681152972878
 40
0.7674926964570707
 40
0.8220534840944685
 40
0.8750892847265321
 40
0.9296760053919179
 40
0.9824812890042157
 40
0.9999999999999999
 40
0.9999999999999999
 40
0.9999999999999999
 40
0.9999999999999999
 10
443.8760829310908
 20
185.9101441903717
 30
0.0
 10
443.8819661282351
 20
185.9104835377861
 30
0.0
 10
443.906791292925
 20
185.9119154727092
 30
0.0
 10
443.7484721638778
 20
185.902746035095
 30
0.0
 10
443.4001994335931
 20
185.8836630621209
 30
0.0
 10
442.8580950645567
 20
185.8567415041491
 30
0.0
 10
442.1450426912112
 20
185.8266731502031
 30
0.0
 10
441.2887545296986
 20
185.7984670823447
 30
0.0
 10
440.2993506772171
 20
185.7767146584198
 30
0.0
 10
439.2227924178419
 20
185.766201970365
 30
0.0
 10
438.0707849523255
 20
185.7701828200077
 30
0.0
 10
436.8976348409866
 20
185.7903887276197
 30
0.0
 10
435.7149465514336
 20
185.8272529372361
 30
0.0
 10
434.5766861260021
 20
185.87834556323
 30
0.0
 10
433.4936617782072
 20
185.941138334513
 30
0.0
 10
432.5145587430152
 20
186.0098015951514
 30
0.0
 10
431.6497770486315
 20
186.0797961123116
 30
0.0
 10
430.9409684178329
 20
186.1437092246456
 30
0.0
 10
430.3917630732699
 20
186.1972753500301
 30
0.0
 10
430.0466486990835
 20
186.2327221433133
 30
0.0
 10
429.8878949503385
 20
186.2495020574297
 30
0.0
 10
429.9130942318293
 20
186.2468439519328
 30
0.0
 10
429.9193717325913
 20
186.2461817799066
 30
0.0
  0
LINE
  5
AA
330
1F
100
AcDbEntity
  8
0
  6
Continuous
 62
     7
370
    25
100
AcDbLine
 10
305.8970743512
 20
200.2606720556
 30
0.0
 11
291.8970743512
 21
200.2606720556
 31
0.0
  0
LINE
  5
AB
330
1F
100
AcDbEntity
  8
0
  6
Continuous
 62
     7
370
    25
100
AcDbLine
 10
443.8970743512
 20
200.2606720556
 30
0.0
 11
429.8970743512
 21
200.2606720556
 31
0.0
  0
LINE
  5
AC
330
1F
100
AcDbEntity
  8
0
  6
Continuous
 62
     1
370
    25
100
AcDbLine
 10
355.3970743512
 20
103.5206720556
 30
0.0
 11
355.3970743512
 21
186.7706720556
 31
0.0
  0
LINE
  5
AD
330
1F
100
AcDbEntity
  8
0
  6
Continuous
 62
     1
370
    25
100
AcDbLine
 10
355.3970743512
 20
20.2706720556
 30
0.0
 11
355.3970743512
 21
103.5206720556
 31
0.0
  0
LINE
  5
AE
330
1F
100
AcDbEntity
  8
0
  6
Continuous
 62
     1
370
    25
100
AcDbLine
 10
380.3970743512
 20
103.5206720556
 30
0.0
 11
380.3970743512
 21
186.7706720556
 31
0.0
  0
LINE
  5
AF
330
1F
100
AcDbEntity
  8
0
  6
Continuous
 62
     1
370
    25
100
AcDbLine
 10
380.3970743512
 20
20.2706720556
 30
0.0
 11
380.3970743512
 21
103.5206720556
 31
0.0
  0
ARC
  5
B0
330
1F
100
AcDbEntity
  8
0
  6
Continuous
 62
     7
370
    25
100
AcDbCircle
 10
2402.6972000691
 20
331.2516431475
 30
0.0
 40
2346.625000000005
100
AcDbArc
 50
180.0
 51
181.6727506508
  0
ARC
  5
B1
330
1F
100
AcDbEntity
  8
0
  6
Continuous
 62
     7
370
    25
100
AcDbCircle
 10
-2124.0527999309
 20
331.2516431475
 30
0.0
 40
2346.625000000005
100
AcDbArc
 50
358.3272493492
 51
0.0
  0
LINE
  5
B2
330
1F
100
AcDbEntity
  8
0
  6
Continuous
 62
     7
370
    25
100
AcDbLine
 10
222.5722000691
 20
331.2516431475
 30
0.0
 11
222.5722000691
 21
356.2516431475
 31
0.0
  0
LINE
  5
B3
330
1F
100
AcDbEntity
  8
0
  6
Continuous
 62
     7
370
    25
100
AcDbLine
 10
56.0722000691
 20
356.2516431475
 30
0.0
 11
56.0722000691
 21
331.2516431475
 31
0.0
  0
ARC
  5
B4
330
1F
100
AcDbEntity
  8
0
  6
Continuous
 62
     7
370
    25
100
AcDbCircle
 10
2402.6972000691
 20
356.2516431475
 30
0.0
 40
2346.625000000005
100
AcDbArc
 50
178.3272493492
 51
180.0
  0
ARC
  5
B5
330
1F
100
AcDbEntity
  8
0
  6
Continuous
 62
     7
370
    25
100
AcDbCircle
 10
-2124.0527999309
 20
356.2516431475
 30
0.0
 40
2346.625000000005
100
AcDbArc
 50
0.0
 51
1.6727506508
  0
LINE
  5
B6
330
1F
100
AcDbEntity
  8
0
  6
Continuous
 62
     7
370
    25
100
AcDbLine
 10
221.5722000691
 20
262.7516431475
 30
0.0
 11
57.0722000691
 21
262.7516431475
 31
0.0
  0
LINE
  5
B7
330
1F
100
AcDbEntity
  8
0
  6
Continuous
 62
     7
370
    25
100
AcDbLine
 10
221.5722000691
 20
424.7516431475
 30
0.0
 11
57.0722000691
 21
424.7516431475
 31
0.0
  0
LINE
  5
B8
330
1F
100
AcDbEntity
  8
0
  6
Continuous
 62
     1
370
    25
100
AcDbLine
 10
222.5722000691
 20
331.2516431475
 30
0.0
 11
56.0722000691
 21
331.2516431475
 31
0.0
  0
LINE
  5
B9
330
1F
100
AcDbEntity
  8
0
  6
Continuous
 62
     1
370
    25
100
AcDbLine
 10
222.5722000691
 20
356.2516431475
 30
0.0
 11
56.0722000691
 21
356.2516431475
 31
0.0
  0
ARC
  5
BA
330
1F
100
AcDbEntity
  8
0
  6
Continuous
 62
     7
370
    25
100
AcDbCircle
 10
-113.6390946679
 20
2366.8956720556
 30
0.0
 40
2346.625000000005
100
AcDbArc
 50
270.0
 51
271.6727506508
  0
ARC
  5
BB
330
1F
100
AcDbEntity
  8
0
  6
Continuous
 62
     7
370
    25
100
AcDbCircle
 10
-113.6390946679
 20
-2159.8543279444
 30
0.0
 40
2346.625000000004
100
AcDbArc
 50
88.7908252207
 51
90.0
  0
ARC
  5
BC
330
1F
100
AcDbEntity
  8
0
  6
Continuous
 62
     7
370
    25
100
AcDbCircle
 10
-113.6390946679
 20
-2159.8543279444
 30
0.0
 40
2346.625000000004
100
AcDbArc
 50
88.3272493492
 51
88.4499591099
  0
LINE
  5
BD
330
1F
100
AcDbEntity
  8
0
  6
Continuous
 62
     7
370
    25
100
AcDbLine
 10
-113.6390946679
 20
186.7706720556
 30
0.0
 11
-138.6390946679
 21
186.7706720556
 31
0.0
  0
LINE
  5
BE
330
1F
100
AcDbEntity
  8
0
  6
Continuous
 62
     7
370
    25
100
AcDbLine
 10
-138.6390946679
 20
20.2706720556
 30
0.0
 11
-113.6390946679
 21
20.2706720556
 31
0.0
  0
ARC
  5
BF
330
1F
100
AcDbEntity
  8
0
  6
Continuous
 62
     7
370
    25
100
AcDbCircle
 10
-138.6390946679
 20
2366.8956720556
 30
0.0
 40
2346.625000000005
100
AcDbArc
 50
268.3272493492
 51
270.0
  0
ARC
  5
C0
330
1F
100
AcDbEntity
  8
0
  6
Continuous
 62
     7
370
    25
100
AcDbCircle
 10
-138.6390946679
 20
-2159.8543279444
 30
0.0
 40
2346.625000000004
100
AcDbArc
 50
91.5501111459
 51
91.6727506508
  0
ARC
  5
C1
330
1F
100
AcDbEntity
  8
0
  6
Continuous
 62
     7
370
    25
100
AcDbCircle
 10
-138.6390946679
 20
-2159.8543279444
 30
0.0
 40
2346.625000000004
100
AcDbArc
 50
90.0
 51
91.2092407277
  0
LINE
  5
C2
330
1F
100
AcDbEntity
  8
0
  6
Continuous
 62
     7
370
    25
100
AcDbLine
 10
-50.1390946679
 20
185.9099819624
 30
0.0
 11
-50.1390946679
 21
200.2606720556
 31
0.0
  0
LINE
  5
C3
330
1F
100
AcDbEntity
  8
0
  6
Continuous
 62
     7
370
    25
100
AcDbLine
 10
-64.1390946679
 20
200.2606720556
 30
0.0
 11
-64.1390946679
 21
186.2464746914
 31
0.0
  0
LINE
  5
C4
330
1F
100
AcDbEntity
  8
0
  6
Continuous
 62
     7
370
    25
100
AcDbLine
 10
-188.1390946679
 20
186.2461846743
 30
0.0
 11
-188.1390946679
 21
200.2606720556
 31
0.0
  0
LINE
  5
C5
330
1F
100
AcDbEntity
  8
0
  6
Continuous
 62
     7
370
    25
100
AcDbLine
 10
-202.1390946679
 20
200.2606720556
 30
0.0
 11
-202.1390946679
 21
185.9101452987
 31
0.0
  0
LINE
  5
C6
330
1F
100
AcDbEntity
  8
0
  6
Continuous
 62
     7
370
    25
100
AcDbLine
 10
-45.1390946679
 20
185.7706720556
 30
0.0
 11
-45.1390946679
 21
21.2706720556
 31
0.0
  0
SPLINE
  5
C7
330
1F
100
AcDbEntity
  8
0
  6
Continuous
 62
     7
370
    25
100
AcDbSpline
210
0.0
220
0.0
230
1.0
 70
     8
 71
     3
 72
    12
 73
     8
 74
     0
 42
0.00000001
 43
0.00000001
 40
0.0
 40
0.0
 40
0.0
 40
0.0
 40
0.209598303083353
 40
0.4252541589116001
 40
0.634859029902389
 40
0.8505842898651818
 40
1.0
 40
1.0
 40
1.0
 40
1.0
 10
-62.05057924402708
 20
186.0529638557649
 30
0.0
 10
-62.31348166614664
 20
186.0751673915356
 30
0.0
 10
-62.84688459331544
 20
186.1202161623995
 30
0.0
 10
-63.44801755021778
 20
186.1778528586891
 30
0.0
 10
-63.87833244417276
 20
186.2211018107481
 30
0.0
 10
-64.11331409543692
 20
186.2458070543275
 30
0.0
 10
-64.11772972522579
 20
186.2462782451067
 30
0.0
 10
-64.11953660123977
 20
186.2464710564061
 30
0.0
  0
SPLINE
  5
C8
330
1F
100
AcDbEntity
  8
0
  6
Continuous
 62
     7
370
    25
100
AcDbSpline
210
0.0
220
0.0
230
1.0
 70
     8
 71
     3
 72
    21
 73
    17
 74
     0
 42
0.00000001
 43
0.00000001
 40
0.0
 40
0.0
 40
0.0
 40
0.0
 40
0.0460128046839049
 40
0.1166774957479715
 40
0.1893890580077122
 40
0.2601026022796904
 40
0.3328611394306152
 40
0.4036688552761555
 40
0.4765333305679093
 40
0.5472726255551066
 40
0.6200727762150585
 40
0.6906520722216288
 40
0.76327716598173
 40
0.8338894172380421
 40
0.9065351457145457
 40
1.0
 40
1.0
 40
1.0
 40
1.0
 10
-50.16290389203813
 20
185.9099812512139
 30
0.0
 10
-50.16140138364337
 20
185.9100653325139
 30
0.0
 10
-50.15759138079647
 20
185.9102785426321
 30
0.0
 10
-50.37688175746943
 20
185.8977195335227
 30
0.0
 10
-50.78472602618597
 20
185.8759265946005
 30
0.0
 10
-51.38539661715899
 20
185.8473863495957
 30
0.0
 10
-52.14110185611004
 20
185.8175345660912
 30
0.0
 10
-53.04712529739379
 20
185.7906610673243
 30
0.0
 10
-54.06077057564676
 20
185.772100358854
 30
0.0
 10
-55.17127294649246
 20
185.7657586369726
 30
0.0
 10
-56.32613000060897
 20
185.7746576198304
 30
0.0
 10
-57.5132273625396
 20
185.8002794890623
 30
0.0
 10
-58.67865540410973
 20
185.8416390169117
 30
0.0
 10
-59.8077112942993
 20
185.8970880022387
 30
0.0
 10
-60.9750211604088
 20
185.9689521814369
 30
0.0
 10
-61.66330500612389
 20
186.0227139253837
 30
0.0
 10
-62.05057924402707
 20
186.0529638557649
 30
0.0
  0
LINE
  5
C9
330
1F
100
AcDbEntity
  8
0
  6
Continuous
 62
     7
370
    25
100
AcDbLine
 10
-207.1390946679
 20
185.7706720556
 30
0.0
 11
-207.1390946679
 21
21.2706720556
 31
0.0
  0
SPLINE
  5
CA
330
1F
100
AcDbEntity
  8
0
  6
Continuous
 62
     7
370
    25
100
AcDbSpline
210
0.0
220
0.0
230
1.0
 70
     8
 71
     3
 72
    12
 73
     8
 74
     0
 42
0.00000001
 43
0.00000001
 40
0.0
 40
0.0
 40
0.0
 40
0.0
 40
0.2110734751020353
 40
0.4282638077335694
 40
0.6393384467333638
 40
0.8565459438797668
 40
1.0
 40
1.0
 40
1.0
 40
1.0
 10
-200.076566400895
 20
185.8168262982055
 30
0.0
 10
-200.3382620241013
 20
185.8264280497128
 30
0.0
 10
-200.8692371454773
 20
185.8459098091307
 30
0.0
 10
-201.4652847871466
 20
185.8746253473284
 30
0.0
 10
-201.8891411355015
 20
185.8969968011692
 30
0.0
 10
-202.11672862674
 20
185.910059676263
 30
0.0
 10
-202.1177108005648
 20
185.9101200670233
 30
0.0
 10
-202.118101462718
 20
185.9101440876029
 30
0.0
  0
SPLINE
  5
CB
330
1F
100
AcDbEntity
  8
0
  6
Continuous
 62
     7
370
    25
100
AcDbSpline
210
0.0
220
0.0
230
1.0
 70
     8
 71
     3
 72
    21
 73
    17
 74
     0
 42
0.00000001
 43
0.00000001
 40
0.0
 40
0.0
 40
0.0
 40
0.0
 40
0.0491576325942498
 40
0.1193931426955247
 40
0.1916588756432474
 40
0.2620292041650761
 40
0.3344208529553033
 40
0.4051313667786143
 40
0.4778849349988034
 40
0.548709140692457
 40
0.6215990889251505
 40
0.6922080561617983
 40
0.7648772786057416
 40
0.8352773278509632
 40
0.907716580379108
 40
1.0
 40
1.0
 40
1.0
 40
1.0
 10
-188.161392826759
 20
186.2461816979718
 30
0.0
 10
-188.1615988253264
 20
186.2461563106255
 30
0.0
 10
-188.1620991508108
 20
186.2460946503114
 30
0.0
 10
-188.3904011394061
 20
186.2221259072863
 30
0.0
 10
-188.8046479963285
 20
186.1802402473392
 30
0.0
 10
-189.4091008979608
 20
186.1226964242146
 30
0.0
 10
-190.1677648406617
 20
186.0565125389523
 30
0.0
 10
-191.0761014359824
 20
185.9861531652586
 30
0.0
 10
-192.0930552707489
 20
185.9188707199351
 30
0.0
 10
-193.2073669763559
 20
185.8591516580594
 30
0.0
 10
-194.366544442376
 20
185.8125888849304
 30
0.0
 10
-195.5574945798973
 20
185.7813114415157
 30
0.0
 10
-196.724590203571
 20
185.7669480402288
 30
0.0
 10
-197.8531535533218
 20
185.7684832112618
 30
0.0
 10
-199.0129249739645
 20
185.7845491664415
 30
0.0
 10
-199.6946436711588
 20
185.8052365180792
 30
0.0
 10
-200.076566400895
 20
185.8168262982055
 30
0.0
  0
LINE
  5
CC
330
1F
100
AcDbEntity
  8
0
  6
Continuous
 62
     7
370
    25
100
AcDbLine
 10
-50.1390946679
 20
200.2606720556
 30
0.0
 11
-64.1390946679
 21
200.2606720556
 31
0.0
  0
LINE
  5
CD
330
1F
100
AcDbEntity
  8
0
  6
Continuous
 62
     7
370
    25
100
AcDbLine
 10
-188.1390946679
 20
200.2606720556
 30
0.0
 11
-202.1390946679
 21
200.2606720556
 31
0.0
  0
LINE
  5
CE
330
1F
100
AcDbEntity
  8
0
  6
Continuous
 62
     1
370
    25
100
AcDbLine
 10
-113.6390946679
 20
186.7706720556
 30
0.0
 11
-113.6390946679
 21
20.2706720556
 31
0.0
  0
LINE
  5
CF
330
1F
100
AcDbEntity
  8
0
  6
Continuous
 62
     1
370
    25
100
AcDbLine
 10
-138.6390946679
 20
186.7706720556
 30
0.0
 11
-138.6390946679
 21
20.2706720556
 31
0.0
  0
ARC
  5
D0
330
1F
100
AcDbEntity
  8
0
  6
Continuous
 62
     7
370
    25
100
AcDbCircle
 10
-2124.0527999309
 20
-124.2492502235
 30
0.0
 40
2346.625000000005
100
AcDbArc
 50
0.0
 51
1.6727506508
  0
ARC
  5
D1
330
1F
100
AcDbEntity
  8
0
  6
Continuous
 62
     7
370
    25
100
AcDbCircle
 10
2402.6972000691
 20
-124.2492502235
 30
0.0
 40
2346.625000000005
100
AcDbArc
 50
178.3272493492
 51
180.0
  0
LINE
  5
D2
330
1F
100
AcDbEntity
  8
0
  6
Continuous
 62
     7
370
    25
100
AcDbLine
 10
56.0722000691
 20
-124.2492502235
 30
0.0
 11
56.0722000691
 21
-149.2492502235
 31
0.0
  0
LINE
  5
D3
330
1F
100
AcDbEntity
  8
0
  6
Continuous
 62
     7
370
    25
100
AcDbLine
 10
222.5722000691
 20
-149.2492502235
 30
0.0
 11
222.5722000691
 21
-124.2492502235
 31
0.0
  0
ARC
  5
D4
330
1F
100
AcDbEntity
  8
0
  6
Continuous
 62
     7
370
    25
100
AcDbCircle
 10
-2124.0527999309
 20
-149.2492502235
 30
0.0
 40
2346.625000000005
100
AcDbArc
 50
358.3272493492
 51
0.0
  0
ARC
  5
D5
330
1F
100
AcDbEntity
  8
0
  6
Continuous
 62
     7
370
    25
100
AcDbCircle
 10
2402.6972000691
 20
-149.2492502235
 30
0.0
 40
2346.625000000005
100
AcDbArc
 50
180.0
 51
181.6727506508
  0
CIRCLE
  5
D6
330
1F
100
AcDbEntity
  8
0
  6
Continuous
 62
     7
370
    25
100
AcDbCircle
 10
139.3222000691
 20
-67.7492502235
 30
0.0
 40
7.000000000000043
  0
CIRCLE
  5
D7
330
1F
100
AcDbEntity
  8
0
  6
Continuous
 62
     7
370
    25
100
AcDbCircle
 10
139.3222000691
 20
-67.7492502235
 30
0.0
 40
5.000000000000014
  0
CIRCLE
  5
D8
330
1F
100
AcDbEntity
  8
0
  6
Continuous
 62
     7
370
    25
100
AcDbCircle
 10
139.3222000691
 20
-205.7492502235
 30
0.0
 40
7.0
  0
CIRCLE
  5
D9
330
1F
100
AcDbEntity
  8
0
  6
Continuous
 62
     7
370
    25
100
AcDbCircle
 10
139.3222000691
 20
-205.7492502235
 30
0.0
 40
5.0
  0
LINE
  5
DA
330
1F
100
AcDbEntity
  8
0
  6
Continuous
 62
     7
370
    25
100
AcDbLine
 10
57.0722000691
 20
-55.7492502235
 30
0.0
 11
221.5722000691
 21
-55.7492502235
 31
0.0
  0
LINE
  5
DB
330
1F
100
AcDbEntity
  8
0
  6
Continuous
 62
     7
370
    25
100
AcDbLine
 10
57.0722000691
 20
-217.7492502235
 30
0.0
 11
221.5722000691
 21
-217.7492502235
 31
0.0
  0
LINE
  5
DC
330
1F
100
AcDbEntity
  8
0
  6
Continuous
 62
     1
370
    25
100
AcDbLine
 10
56.0722000691
 20
-124.2492502235
 30
0.0
 11
222.5722000691
 21
-124.2492502235
 31
0.0
  0
LINE
  5
DD
330
1F
100
AcDbEntity
  8
0
  6
Continuous
 62
     1
370
    25
100
AcDbLine
 10
56.0722000691
 20
-149.2492502235
 30
0.0
 11
222.5722000691
 21
-149.2492502235
 31
0.0
  0
INSERT
  5
E9
330
1F
100
AcDbEntity
  8
FORMAT
 62
     7
100
AcDbBlockReference
  2
SW_CENTERMARKSYMBOL_1
 10
139.3222000691
 20
-67.7492502235
 30
0.0
  0
INSERT
  5
F5
330
1F
100
AcDbEntity
  8
FORMAT
 62
     7
100
AcDbBlockReference
  2
SW_CENTERMARKSYMBOL_2
 10
139.3222000691
 20
-205.7492502235
 30
0.0
  0
SPLINE
  5
F6
330
1F
100
AcDbEntity
  8
0
  6
Continuous
 62
     7
370
    25
100
AcDbSpline
210
0.0
220
0.0
230
1.0
 70
     8
 71
     3
 72
    11
 73
     7
 74
     0
 42
0.00000001
 43
0.00000001
 40
0.0
 40
0.0
 40
0.0
 40
0.0
 40
0.2399542626327733
 40
0.5380995803875281
 40
0.8361729747273874
 40
1.0
 40
1.0
 40
1.0
 40
1.0
 10
347.4704985204911
 20
-65.68763829005128
 30
0.0
 10
343.5294702863073
 20
-67.96880023994919
 30
0.0
 10
334.691679217952
 20
-73.08432631799444
 30
0.0
 10
321.0725139979501
 20
-81.22611063998237
 30
0.0
 10
308.7502801135539
 20
-88.71911892093173
 30
0.0
 10
301.3288598728816
 20
-93.376629959463
 30
0.0
 10
298.6966275784243
 20
-95.02855783443029
 30
0.0
  0
SPLINE
  5
F7
330
1F
100
AcDbEntity
  8
0
  6
Continuous
 62
     7
370
    25
100
AcDbSpline
210
0.0
220
0.0
230
1.0
 70
     8
 71
     3
 72
    12
 73
     8
 74
     0
 42
0.00000001
 43
0.00000001
 40
0.0
 40
0.0
 40
0.0
 40
0.0
 40
0.0469844140765005
 40
0.345250641027404
 40
0.6435124322216876
 40
0.9417540976032216
 40
0.9999999999999999
 40
0.9999999999999999
 40
0.9999999999999999
 40
0.9999999999999999
 10
380.9060095331907
 20
-237.4329487208721
 30
0.0
 10
381.6950139655968
 20
-237.0186658703909
 30
0.0
 10
387.4927724652162
 20
-233.9744346608155
 30
0.0
 10
398.2225358557263
 20
-228.1471369860596
 30
0.0
 10
413.0771682721518
 20
-219.9271118798255
 30
0.0
 10
423.8993824357786
 20
-213.8221896324652
 30
0.0
 10
429.7443967352222
 20
-210.4166240210428
 30
0.0
 10
430.6994037625776
 20
-209.8601944001028
 30
0.0
  0
LINE
  5
F8
330
1F
100
AcDbEntity
  8
0
  6
Continuous
 62
     7
370
    25
100
AcDbLine
 10
356.1334056783
 20
-93.4439370125
 30
0.0
 11
356.1334056783
 21
-81.8452945315
 31
0.0
  0
LINE
  5
F9
330
1F
100
AcDbEntity
  8
0
  6
Continuous
 62
     7
370
    25
100
AcDbLine
 10
342.1334056783
 20
-81.8452945315
 30
0.0
 11
342.1334056783
 21
-93.6385711275
 31
0.0
  0
LINE
  5
FA
330
1F
100
AcDbEntity
  8
0
  6
Continuous
 62
     7
370
    25
100
AcDbLine
 10
365.140991099
 20
-55.4702543234
 30
0.0
 11
347.4633215693
 21
-65.6753557212
 31
0.0
  0
LINE
  5
FB
330
1F
100
AcDbEntity
  8
0
  6
Continuous
 62
     7
370
    25
100
AcDbLine
 10
430.7065560613
 20
-209.8724913075
 30
0.0
 11
448.384225591
 21
-199.6673899098
 31
0.0
  0
SPLINE
  5
FC
330
1F
100
AcDbEntity
  8
0
  6
Continuous
 62
     7
370
    25
100
AcDbSpline
210
0.0
220
0.0
230
1.0
 70
     8
 71
     3
 72
    12
 73
     8
 74
     0
 42
0.00000001
 43
0.00000001
 40
0.0
 40
0.0
 40
0.0
 40
0.0
 40
0.0470026151365984
 40
0.3452633024674652
 40
0.6435195541254082
 40
0.9417556803434532
 40
1.0
 40
1.0
 40
1.0
 40
1.0
 10
414.9424982431416
 20
-27.90929173882363
 30
0.0
 10
414.153173415049
 20
-28.32374259952022
 30
0.0
 10
408.3550939661756
 20
-31.36814071351317
 30
0.0
 10
397.6250107848985
 20
-37.19560760791764
 30
0.0
 10
382.7703790461919
 20
-45.41563406299709
 30
0.0
 10
371.9481729647958
 20
-51.52055125685166
 30
0.0
 10
366.1031668658323
 20
-54.92611206066082
 30
0.0
 10
365.1481680501546
 20
-55.48253689226756
 30
0.0
  0
SPLINE
  5
FD
330
1F
100
AcDbEntity
  8
0
  6
Continuous
 62
     7
370
    25
100
AcDbSpline
210
0.0
220
0.0
230
1.0
 70
     8
 71
     3
 72
    11
 73
     7
 74
     0
 42
0.00000001
 43
0.00000001
 40
0.0
 40
0.0
 40
0.0
 40
0.0
 40
0.2399515069591864
 40
0.5380940231947945
 40
0.8361646166904242
 40
1.0
 40
1.0
 40
1.0
 40
1.0
 10
448.3770732922413
 20
-199.6550930023191
 30
0.0
 10
452.3180932829663
 20
-197.3739357896044
 30
0.0
 10
461.1558760882272
 20
-192.2584144174538
 30
0.0
 10
474.7750333323899
 20
-184.1166352529909
 30
0.0
 10
487.0974269800932
 20
-176.6235283141745
 30
0.0
 10
494.5190059518982
 20
-171.965917020767
 30
0.0
 10
497.1513971671363
 20
-170.3138891841923
 30
0.0
  0
LINE
  5
FE
330
1F
100
AcDbEntity
  8
0
  6
Continuous
 62
     7
370
    25
100
AcDbLine
 10
453.714141482
 20
-37.3067445114
 30
0.0
 11
453.714141482
 21
-25.5131348157
 31
0.0
  0
LINE
  5
FF
330
1F
100
AcDbEntity
  8
0
  6
Continuous
 62
     7
370
    25
100
AcDbLine
 10
439.714141482
 20
-25.5131348157
 30
0.0
 11
439.714141482
 21
-37.1120452299
 31
0.0
  0
LWPOLYLINE
  5
100
330
1F
100
AcDbEntity
  8
0
  6
Continuous
 62
     7
370
    25
100
AcDbPolyline
 90
      128
 70
   128
 43
0.0
 10
282.4885915514
 20
-132.1611177456
 10
282.5597546127
 20
-128.8808636507
 10
282.7730696486
 20
-125.6908000089
 10
283.1280146414
 20
-122.5987334405
 10
283.6237209812
 20
-119.6122307505
 10
284.2589755917
 20
-116.7386004114
 10
285.0322238983
 20
-113.9848746783
 10
285.9415736328
 20
-111.3577923795
 10
286.9847994641
 20
-108.8637824255
 10
288.1593484437
 20
-106.5089480766
 10
289.4623462534
 20
-104.2990520072
 10
290.8906042393
 20
-102.2395022031
 10
292.4406272147
 20
-100.3353387279
 10
294.1086220138
 20
-98.5912213887
 10
295.8905067736
 20
-97.0114183329
 10
297.7819209236
 20
-95.5997956033
 10
299.7782358565
 20
-94.3598076772
 10
301.874566255
 20
-93.2944890129
 10
304.0657820474
 20
-92.4064466238
 10
306.3465209614
 20
-91.6978536982
 10
308.7112016468
 20
-91.1704442819
 10
311.1540373337
 20
-90.8255090341
 10
313.6690499937
 20
-90.6638920691
 10
316.2500849695
 20
-90.6859888907
 10
318.890826036
 20
-90.8917454244
 10
321.5848108572
 20
-91.2806581493
 10
324.325446801
 20
-91.8517753309
 10
327.1060270717
 20
-92.6036993497
 10
329.9197471237
 20
-93.5345901217
 10
332.7597213124
 20
-94.6421696011
 10
335.6189997451
 20
-95.9237273553
 10
338.4905852883
 20
-97.3761271979
 10
341.3674506911
 20
-98.9958148629
 10
344.2425557816
 20
-100.7788267033
 10
347.108864696
 20
-102.7207993903
 10
349.959363096
 20
-104.8169805913
 10
352.7870753344
 20
-107.0622405996
 10
355.5850815255
 20
-109.4510848879
 10
358.3465344792
 20
-111.9776675537
 10
361.0646764575
 20
-114.635805626
 10
363.7328557114
 20
-117.4189941954
 10
366.3445427593
 20
-120.3204223331
 10
368.8933463652
 20
-123.3329897583
 10
371.3730291796
 20
-126.4493242137
 10
373.7775230032
 20
-129.6617995066
 10
376.1009436366
 20
-132.9625541717
 10
378.3376052802
 20
-136.3435107093
 10
380.4820344482
 20
-139.796395352
 10
382.5289833631
 20
-143.3127583126
 10
384.4734427978
 20
-146.8839944617
 10
386.3106543343
 20
-150.501364386
 10
388.036122008
 20
-154.1560157751
 10
389.6456233105
 20
-157.8390050846
 10
391.1352195223
 20
-161.5413194226
 10
392.501265352
 20
-165.2538986054
 10
393.7404178563
 20
-168.9676573297
 10
394.8496446217
 20
-172.6735074056
 10
395.8262311841
 20
-176.3623799969
 10
396.6677876728
 20
-180.0252478142
 10
397.3722546579
 20
-183.6531472062
 10
397.9379081906
 20
-187.2372000952
 10
398.3633640221
 20
-190.7686357032
 10
398.6475809905
 20
-194.2388120153
 10
398.7898635694
 20
-197.6392369288
 10
398.7898635694
 20
-200.9615890341
 10
398.6475809905
 20
-204.1977379787
 10
398.3633640221
 20
-207.339764364
 10
397.9379081906
 20
-210.3799791249
 10
397.3722546579
 20
-213.3109423463
 10
396.6677876728
 20
-216.1254814702
 10
395.8262311841
 20
-218.8167088477
 10
394.8496446217
 20
-221.3780385944
 10
393.7404178563
 20
-223.8032027072
 10
392.501265352
 20
-226.0862664031
 10
391.1352195223
 20
-228.2216426428
 10
389.6456233105
 20
-230.2041058026
 10
388.036122008
 20
-232.0288044631
 10
386.3106543343
 20
-233.6912732809
 10
384.4734427978
 20
-235.1874439162
 10
382.5289833631
 20
-236.5136549887
 10
380.4820344482
 20
-237.6666610377
 10
378.3376052802
 20
-238.6436404642
 10
376.1009436366
 20
-239.4422024358
 10
373.7775230032
 20
-240.0603927375
 10
371.3730291796
 20
-240.4966985542
 10
368.8933463652
 20
-240.7500521723
 10
366.3445427593
 20
-240.8198335931
 10
363.7328557114
 20
-240.7058720498
 10
361.0646764575
 20
-240.4084464253
 10
358.3465344792
 20
-239.92828457
 10
355.5850815255
 20
-239.2665615204
 10
352.7870753344
 20
-238.4248966238
 10
349.959363096
 20
-237.405349575
 10
347.108864696
 20
-236.2104153768
 10
344.2425557816
 20
-234.8430182331
 10
341.3674506911
 20
-233.3065043941
 10
338.4905852883
 20
-231.6046339664
 10
335.6189997451
 20
-229.7415717124
 10
332.7597213124
 20
-227.7218768574
 10
329.9197471237
 20
-225.5504919332
 10
327.1060270717
 20
-223.2327306827
 10
324.325446801
 20
-220.7742650559
 10
321.5848108572
 20
-218.1811113303
 10
318.890826036
 20
-215.4596153875
 10
316.2500849695
 20
-212.6164371842
 10
313.6690499937
 20
-209.6585344539
 10
311.1540373337
 20
-206.5931456801
 10
308.7112016468
 20
-203.427772383
 10
306.3465209614
 20
-200.1701607613
 10
304.0657820474
 20
-196.8282827366
 10
301.874566255
 20
-193.4103164445
 10
299.7782358565
 20
-189.9246262212
 10
297.7819209236
 20
-186.3797421347
 10
295.8905067736
 20
-182.7843391106
 10
294.1086220138
 20
-179.1472157024
 10
292.4406272147
 20
-175.4772725606
 10
290.8906042393
 20
-171.783490651
 10
289.4623462534
 20
-168.074909277
 10
288.1593484436
 20
-164.3606039587
 10
286.9847994641
 20
-160.6496642235
 10
285.9415736328
 20
-156.9511713629
 10
285.0322238983
 20
-153.2741762086
 10
284.2589755917
 20
-149.6276769839
 10
283.6237209812
 20
-146.0205972835
 10
283.1280146414
 20
-142.4617642359
 10
282.7730696486
 20
-138.9598869019
 10
282.5597546127
 20
-135.5235349621
 10
282.4885915514
 20
-132.1611177456
  0
SPLINE
  5
101
330
1F
100
AcDbEntity
  8
0
  6
Continuous
 62
     7
370
    25
100
AcDbSpline
210
0.0
220
0.0
230
1.0
 70
     8
 71
     3
 72
    17
 73
    13
 74
     0
 42
0.00000001
 43
0.00000001
 40
0.0
 40
0.0
 40
0.0
 40
0.0
 40
0.1056957116639925
 40
0.21445445912353
 40
0.3201507536130144
 40
0.4289180962577762
 40
0.5345057987716327
 40
0.6431608098799456
 40
0.7486683485682537
 40
0.857228230045236
 40
0.962869775306489
 40
1.0
 40
1.0
 40
1.0
 40
1.0
 10
349.1507447151495
 20
-97.68028566067508
 30
0.0
 10
348.7627747959008
 20
-97.66220381669805
 30
0.0
 10
347.9755916843177
 20
-97.62551612134129
 30
0.0
 10
346.8325248494068
 20
-97.42760324040638
 30
0.0
 10
345.7445043624992
 20
-97.13179987227548
 30
0.0
 10
344.7623546134814
 20
-96.74349463960654
 30
0.0
 10
343.8958408099565
 20
-96.27097416083761
 30
0.0
 10
343.1864359672193
 20
-95.73580882591284
 30
0.0
 10
342.6363171394035
 20
-95.14274674320049
 30
0.0
 10
342.2879623578659
 20
-94.51691973666925
 30
0.0
 10
342.1258523803463
 20
-94.00730479215758
 30
0.0
 10
342.1500993576498
 20
-93.71495977958915
 30
0.0
 10
342.1564051960918
 20
-93.6389304916695
 30
0.0
  0
SPLINE
  5
102
330
1F
100
AcDbEntity
  8
0
  6
Continuous
 62
     7
370
    25
100
AcDbSpline
210
0.0
220
0.0
230
1.0
 70
     8
 71
     3
 72
    17
 73
    13
 74
     0
 42
0.00000001
 43
0.00000001
 40
0.0
 40
0.0
 40
0.0
 40
0.0
 40
0.001073026818169
 40
0.1071981057953034
 40
0.2163894799738138
 40
0.3226851921151945
 40
0.4320812507008089
 40
0.5380539246260378
 40
0.6471187093954
 40
0.7527778311041191
 40
0.861497468113171
 40
1.0
 40
1.0
 40
1.0
 40
1.0
 10
356.1324162480035
 20
-93.4439847765119
 30
0.0
 10
356.1327457518138
 20
-93.44641700888376
 30
0.0
 10
356.1656640197694
 20
-93.68940320336061
 30
0.0
 10
356.05038785857
 20
-94.1867843763067
 30
0.0
 10
355.774059595417
 20
-94.90015766775787
 30
0.0
 10
355.2803537795942
 20
-95.5769039291106
 30
0.0
 10
354.6232395508665
 20
-96.18105817644991
 30
0.0
 10
353.8018418942548
 20
-96.70494941940515
 30
0.0
 10
352.8579708207592
 20
-97.12455572876925
 30
0.0
 10
351.800306563923
 20
-97.43411050329796
 30
0.0
 10
350.5638367031775
 20
-97.65403522612068
 30
0.0
 10
349.6581449872443
 20
-97.67085989239648
 30
0.0
 10
349.1507447151495
 20
-97.68028566067508
 30
0.0
  0
LWPOLYLINE
  5
103
330
1F
100
AcDbEntity
  8
0
  6
Continuous
 62
     7
370
    25
100
AcDbPolyline
 90
      118
 70
   128
 43
0.0
 10
290.8324515694
 20
-136.9779256053
 10
290.9042673096
 20
-133.9316197124
 10
291.1195074668
 20
-130.9770137967
 10
291.4775514479
 20
-128.1226267518
 10
291.9773669194
 20
-125.3766885146
 10
292.6175127839
 20
-122.7471163359
 10
293.3961433352
 20
-120.2414919529
 10
294.3110135798
 20
-117.8670397294
 10
295.35948571
 20
-115.6306058259
 10
296.5385367092
 20
-113.5386384601
 10
297.8447670682
 20
-111.5971693157
 10
299.2744105867
 20
-109.8117961507
 10
300.8233452323
 20
-108.1876666581
 10
302.4871050255
 20
-106.7294636237
 10
304.260892916
 20
-105.4413914244
 10
306.1395946143
 20
-104.3271639057
 10
308.117793337
 20
-103.3899936741
 10
310.189785425
 20
-102.6325828338
 10
312.3495967888
 20
-102.0571151965
 10
314.5910001331
 20
-101.6652499843
 10
316.9075329119
 20
-101.458117046
 10
319.2925159614
 20
-101.4363135996
 10
321.7390727582
 20
-101.59990251
 10
324.2401492455
 20
-101.948412108
 10
326.7885341725
 20
-102.4808375502
 10
329.3768798857
 20
-103.1956437163
 10
331.9977235144
 20
-104.0907696351
 10
334.6435084879
 20
-105.1636344268
 10
337.3066063232
 20
-106.4111447444
 10
339.9793386199
 20
-107.8297036928
 10
342.6539991989
 20
-109.4152211993
 10
345.3228763212
 20
-111.1631258065
 10
347.9782749234
 20
-113.068377853
 10
350.6125388037
 20
-115.1254840038
 10
353.2180726975
 20
-117.3285130893
 10
355.7873641761
 20
-119.6711132066
 10
358.313005307
 20
-122.1465300329
 10
360.7877140131
 20
-124.7476263007
 10
363.2043550684
 20
-127.4669023762
 10
365.5559606713
 20
-130.2965178825
 10
367.835750534
 20
-133.2283143056
 10
370.0371514322
 20
-136.2538385174
 10
372.1538161572
 20
-139.3643671484
 10
374.1796418166
 20
-142.5509317393
 10
376.1087874307
 20
-145.8043445995
 10
377.9356907733
 20
-149.1152252976
 10
379.655084409
 20
-152.4740277073
 10
381.2620108809
 20
-155.8710675318
 10
382.751837004
 20
-159.2965502259
 10
384.120267224
 20
-162.7405992363
 10
385.3633560022
 20
-166.193284478
 10
386.4775191919
 20
-169.6446509658
 10
387.4595443722
 20
-173.0847475166
 10
388.3066001103
 20
-176.5036554414
 10
389.0162441253
 20
-179.8915171437
 10
389.5864303296
 20
-183.2385645411
 10
390.0155147289
 20
-186.5351472297
 10
390.3022601619
 20
-189.7717603079
 10
390.4458398671
 20
-192.9390717826
 10
390.4458398671
 20
-196.0279494748
 10
390.3022601619
 20
-199.0294873505
 10
390.0155147289
 20
-201.935031199
 10
389.5864303296
 20
-204.7362035851
 10
389.0162441253
 20
-207.4249280038
 10
388.3066001103
 20
-209.9934521666
 10
387.4595443722
 20
-212.4343703533
 10
386.4775191919
 20
-214.7406447649
 10
385.3633560022
 20
-216.9056258153
 10
384.120267224
 20
-218.9230713037
 10
382.751837004
 20
-220.7871644124
 10
381.2620108809
 20
-222.4925304784
 10
379.655084409
 20
-224.03425249
 10
377.9356907733
 20
-225.4078852635
 10
376.1087874307
 20
-226.6094682599
 10
374.1796418166
 20
-227.6355370045
 10
372.1538161572
 20
-228.4831330754
 10
370.0371514322
 20
-229.1498126337
 10
367.835750534
 20
-229.6336534697
 10
365.5559606713
 20
-229.933260545
 10
363.2043550684
 20
-230.0477700148
 10
360.7877140131
 20
-229.9768517188
 10
358.313005307
 20
-229.7207101326
 10
355.7873641761
 20
-229.2800837789
 10
353.2180726975
 20
-228.6562430974
 10
350.6125388037
 20
-227.8509867823
 10
347.9782749234
 20
-226.8666365961
 10
345.3228763212
 20
-225.7060306752
 10
342.6539991989
 20
-224.3725153468
 10
339.9793386199
 20
-222.8699354808
 10
337.3066063232
 20
-221.2026234041
 10
334.6435084879
 20
-219.3753864089
 10
331.9977235144
 20
-217.3934928925
 10
329.3768798857
 20
-215.262657167
 10
326.7885341725
 20
-212.9890229834
 10
324.2401492455
 20
-210.5791458176
 10
321.7390727582
 20
-208.0399739693
 10
319.2925159614
 20
-205.3788285284
 10
316.9075329119
 20
-202.6033822659
 10
314.5910001331
 20
-199.721637512
 10
312.3495967888
 20
-196.7419030827
 10
310.189785425
 20
-193.6727703239
 10
308.117793337
 20
-190.5230883397
 10
306.1395946143
 20
-187.3019384788
 10
304.260892916
 20
-184.0186081499
 10
302.4871050255
 20
-180.6825640445
 10
300.8233452323
 20
-177.3034248412
 10
299.2744105867
 20
-173.8909334731
 10
297.8447670682
 20
-170.4549290363
 10
296.5385367092
 20
-167.0053184211
 10
295.35948571
 20
-163.5520477478
 10
294.3110135798
 20
-160.1050736898
 10
293.3961433352
 20
-156.6743347656
 10
292.6175127839
 20
-153.2697226836
 10
291.9773669194
 20
-149.9010538218
 10
291.4775514479
 20
-146.5780409246
 10
291.1195074668
 20
-143.3102650984
 10
290.9042673096
 20
-140.1071481869
 10
290.8324515694
 20
-136.9779256053
  0
LWPOLYLINE
  5
104
330
1F
100
AcDbEntity
  8
0
  6
Continuous
 62
     7
370
    25
100
AcDbPolyline
 90
       38
 70
   128
 43
0.0
 10
354.0831531466
 20
-78.9878661401
 10
354.8484669178
 20
-79.5118753884
 10
355.4493687825
 20
-80.1030128571
 10
355.8685718881
 20
-80.7442725973
 10
356.0940165246
 20
-81.4172067339
 10
356.1192170602
 20
-82.1024561771
 10
355.9434485214
 20
-82.7803075479
 10
355.5717674489
 20
-83.4312602966
 10
355.0148664307
 20
-84.0365876979
 10
354.2887664949
 20
-84.5788755844
 10
353.4143562148
 20
-85.042523321
 10
352.416790782
 20
-85.4141926065
 10
351.3247683379
 20
-85.6831911923
 10
350.1697043798
 20
-85.8417804788
 10
348.9848279949
 20
-85.885398141
 10
347.8042259195
 20
-85.8127893782
 10
346.6618619256
 20
-85.6260430122
 10
345.5905997456
 20
-85.330531396
 10
344.6212576419
 20
-84.9347558607
 10
343.781721822
 20
-84.450102148
 10
343.0961442028
 20
-83.8905128627
 10
342.5842476042
 20
-83.2720863698
 10
342.2607583595
 20
-82.6126136734
 10
342.1349826651
 20
-81.9310666024
 10
342.2105388587
 20
-81.247052025
 10
342.4852533264
 20
-80.5802477954
 10
342.9512230329
 20
-79.9498366571
 10
343.5950428783
 20
-79.3739543907
 10
344.3981913378
 20
-78.8691680807
 10
345.3375632924
 20
-78.44999951
 10
346.3861347215
 20
-78.1285073953
 10
347.513740134
 20
-77.9139404794
 10
348.6879403753
 20
-77.8124714618
 10
349.8749558423
 20
-77.8270194213
 10
351.0406382612
 20
-77.9571658397
 10
352.1514530713
 20
-78.1991666415
 10
353.1754441527
 20
-78.5460599041
 10
354.0831531466
 20
-78.9878661401
  0
LWPOLYLINE
  5
105
330
1F
100
AcDbEntity
  8
0
  6
Continuous
 62
     7
370
    25
100
AcDbPolyline
 90
       32
 70
   128
 43
0.0
 10
352.6689395842
 20
-79.804274252
 10
353.3082647404
 20
-80.2569084187
 10
353.7766706761
 20
-80.7745712996
 10
354.0549807973
 20
-81.3360697154
 10
354.1318010548
 20
-81.9184158549
 10
354.0039864183
 20
-82.497768399
 10
353.676769634
 20
-83.0504085862
 10
353.1635469955
 20
-83.5537112624
 10
352.4853298981
 20
-83.9870711569
 10
351.6698846292
 20
-84.3327464648
 10
350.750595614
 20
-84.5765851982
 10
349.7650986529
 20
-84.7086045708
 10
348.7537401071
 20
-84.723399694
 10
347.7579251145
 20
-84.6203648537
 10
346.8184224577
 20
-84.4037183083
 10
345.973695486
 20
-84.0823295929
 10
345.2583274209
 20
-83.6693563992
 10
344.7016055148
 20
-83.1817058984
 10
344.3263220282
 20
-82.6393425592
 10
344.147841111
 20
-82.0644708004
 10
344.173469793
 20
-81.4806259395
 10
344.4021588329
 20
-80.9117106535
 10
344.8245456746
 20
-80.3810164012
 10
345.423337751
 20
-79.9102698676
 10
346.1740204443
 20
-79.5187434711
 10
347.0458607168
 20
-79.2224663483
 10
348.0031653254
 20
-79.0335681196
 10
349.0067421067
 20
-78.9597823005
 10
350.0155045096
 20
-79.0041296912
 10
350.9881536826
 20
-79.1647947043
 10
351.8848692545
 20
-79.4351996952
 10
352.6689395842
 20
-79.804274252
  0
LWPOLYLINE
  5
106
330
1F
100
AcDbEntity
  8
0
  6
Continuous
 62
     7
370
    25
100
AcDbPolyline
 90
       12
 70
   128
 43
0.0
 10
414.9355533543
 20
-27.8993727256
 10
416.4258648072
 20
-27.1654319553
 10
418.6170805996
 20
-26.2773895661
 10
420.8978195136
 20
-25.5687966406
 10
423.262500199
 20
-25.0413872243
 10
425.7053358859
 20
-24.6964519765
 10
428.2203485459
 20
-24.5348350115
 10
430.8013835218
 20
-24.5569318331
 10
433.4421245882
 20
-24.7626883667
 10
436.1361094095
 20
-25.1516010916
 10
438.8767453532
 20
-25.7227182732
 10
439.714141482
 20
-25.9312215715
  0
LWPOLYLINE
  5
107
330
1F
100
AcDbEntity
  8
0
  6
Continuous
 62
     7
370
    25
100
AcDbPolyline
 90
       49
 70
   128
 43
0.0
 10
453.714141482
 20
-31.6108321685
 10
455.9187492433
 20
-32.8667578053
 10
458.7938543338
 20
-34.6497696457
 10
461.6601632482
 20
-36.5917423326
 10
464.5106616482
 20
-38.6879235336
 10
467.3383738866
 20
-40.933183542
 10
470.1363800777
 20
-43.3220278302
 10
472.8978330314
 20
-45.8486104961
 10
475.6159750097
 20
-48.5067485683
 10
478.2841542637
 20
-51.2899371377
 10
480.8958413115
 20
-54.1913652755
 10
483.4446449174
 20
-57.2039327007
 10
485.9243277318
 20
-60.320267156
 10
488.3288215554
 20
-63.532742449
 10
490.6522421888
 20
-66.8334971141
 10
492.8889038325
 20
-70.2144536516
 10
495.0333330005
 20
-73.6673382944
 10
497.0802819153
 20
-77.183701255
 10
499.02474135
 20
-80.7549374041
 10
500.8619528865
 20
-84.3723073284
 10
502.5874205602
 20
-88.0269587174
 10
504.1969218627
 20
-91.709948027
 10
505.6865180745
 20
-95.412262365
 10
507.0525639042
 20
-99.1248415478
 10
508.2917164086
 20
-102.8386002721
 10
509.4009431739
 20
-106.544450348
 10
510.3775297363
 20
-110.2333229392
 10
511.219086225
 20
-113.8961907566
 10
511.9235532101
 20
-117.5240901486
 10
512.4892067429
 20
-121.1081430376
 10
512.9146625743
 20
-124.6395786455
 10
513.1988795428
 20
-128.1097549577
 10
513.3411621216
 20
-131.5101798712
 10
513.3411621216
 20
-134.8325319764
 10
513.1988795428
 20
-138.0686809211
 10
512.9146625743
 20
-141.2107073064
 10
512.4892067429
 20
-144.2509220672
 10
511.9235532101
 20
-147.1818852887
 10
511.219086225
 20
-149.9964244126
 10
510.3775297363
 20
-152.68765179
 10
509.4009431739
 20
-155.2489815367
 10
508.2917164086
 20
-157.6741456495
 10
507.0525639042
 20
-159.9572093455
 10
505.6865180745
 20
-162.0925855851
 10
504.1969218627
 20
-164.075048745
 10
502.5874205602
 20
-165.8997474055
 10
500.8619528865
 20
-167.5622162233
 10
499.02474135
 20
-169.0583868586
 10
497.1612641447
 20
-170.3341014576
  0
SPLINE
  5
108
330
1F
100
AcDbEntity
  8
0
  6
Continuous
 62
     7
370
    25
100
AcDbSpline
210
0.0
220
0.0
230
1.0
 70
     8
 71
     3
 72
    17
 73
    13
 74
     0
 42
0.00000001
 43
0.00000001
 40
0.0
 40
0.0
 40
0.0
 40
0.0
 40
0.1052980147520056
 40
0.2136392234083019
 40
0.3189405377462484
 40
0.4273166136580316
 40
0.5322414856048243
 40
0.6402233534003259
 40
0.7449303749388843
 40
0.852654889356103
 40
0.9577173512474567
 40
1.0
 40
1.0
 40
1.0
 40
1.0
 10
446.7680458314892
 20
-41.15520257192207
 30
0.0
 10
446.3804500789533
 20
-41.12802333314612
 30
0.0
 10
445.5940567574538
 20
-41.07287935461437
 30
0.0
 10
444.4502160162167
 20
-40.85519122989084
 30
0.0
 10
443.3598403825451
 20
-40.54574688110391
 30
0.0
 10
442.3747672412308
 20
-40.15131785273282
 30
0.0
 10
441.5048258456269
 20
-39.68036958498811
 30
0.0
 10
440.791600224751
 20
-39.15499476264438
 30
0.0
 10
440.2366944656758
 20
-38.5795097721411
 30
0.0
 10
439.8804629838688
 20
-37.9783765231447
 30
0.0
 10
439.7107223477759
 20
-37.48148633050049
 30
0.0
 10
439.7321848871824
 20
-37.19462324661665
 30
0.0
 10
439.73834384971
 20
-37.11230405079857
 30
0.0
  0
SPLINE
  5
109
330
1F
100
AcDbEntity
  8
0
  6
Continuous
 62
     7
370
    25
100
AcDbSpline
210
0.0
220
0.0
230
1.0
 70
     8
 71
     3
 72
    16
 73
    12
 74
     0
 42
0.00000001
 43
0.00000001
 40
0.0
 40
0.0
 40
0.0
 40
0.0
 40
0.1041682192306673
 40
0.2136280608521589
 40
0.3198953741719996
 40
0.4292585848360707
 40
0.5352855414799195
 40
0.6443857748775561
 40
0.7504622381760934
 40
0.8595934698452506
 40
1.0
 40
1.0
 40
1.0
 40
1.0
 10
453.7121832673502
 20
-37.30665421683424
 30
0.0
 10
453.6950482353749
 20
-37.533257518784
 30
0.0
 10
453.6599077320568
 20
-37.99797530253557
 30
0.0
 10
453.3600017508578
 20
-38.66844148959802
 30
0.0
 10
452.8809108788241
 20
-39.30189715737037
 30
0.0
 10
452.2287098051652
 20
-39.86143801729203
 30
0.0
 10
451.4156254197145
 20
-40.34016215520997
 30
0.0
 10
450.4784522259313
 20
-40.71687111084955
 30
0.0
 10
449.4264532697705
 20
-40.98605000143413
 30
0.0
 10
448.1892688451305
 20
-41.16616242332502
 30
0.0
 10
447.2797830104307
 20
-41.1591488656316
 30
0.0
 10
446.7680458314892
 20
-41.15520257192207
 30
0.0
  0
LWPOLYLINE
  5
10A
330
1F
100
AcDbEntity
  8
0
  6
Continuous
 62
     7
370
    25
100
AcDbPolyline
 90
       38
 70
   128
 43
0.0
 10
441.7643940137
 20
-28.3705632071
 10
440.9990802425
 20
-27.8465539588
 10
440.3981783778
 20
-27.2554164902
 10
439.9789752722
 20
-26.61415675
 10
439.7535306357
 20
-25.9412226133
 10
439.7283301001
 20
-25.2559731702
 10
439.9040986389
 20
-24.5781217993
 10
440.2757797114
 20
-23.9271690506
 10
440.8326807296
 20
-23.3218416494
 10
441.5587806654
 20
-22.7795537629
 10
442.4331909455
 20
-22.3159060263
 10
443.4307563783
 20
-21.9442367407
 10
444.5227788224
 20
-21.6752381549
 10
445.6778427804
 20
-21.5166488684
 10
446.8627191654
 20
-21.4730312062
 10
448.0433212408
 20
-21.5456399691
 10
449.1856852347
 20
-21.7323863351
 10
450.2569474147
 20
-22.0278979513
 10
451.2262895184
 20
-22.4236734865
 10
452.0658253383
 20
-22.9083271992
 10
452.7514029575
 20
-23.4679164845
 10
453.2632995561
 20
-24.0863429774
 10
453.5867888008
 20
-24.7458156738
 10
453.7125644952
 20
-25.4273627449
 10
453.6370083016
 20
-26.1113773222
 10
453.3622938339
 20
-26.7781815519
 10
452.8963241274
 20
-27.4085926902
 10
452.252504282
 20
-27.9844749565
 10
451.4493558225
 20
-28.4892612665
 10
450.5099838678
 20
-28.9084298372
 10
449.4614124388
 20
-29.2299219519
 10
448.3338070263
 20
-29.4444888678
 10
447.159606785
 20
-29.5459578855
 10
445.972591318
 20
-29.5314099259
 10
444.806908899
 20
-29.4012635075
 10
443.696094089
 20
-29.1592627058
 10
442.6721030076
 20
-28.8123694431
 10
441.7643940137
 20
-28.3705632071
  0
LWPOLYLINE
  5
10B
330
1F
100
AcDbEntity
  8
0
  6
Continuous
 62
     7
370
    25
100
AcDbPolyline
 90
       32
 70
   128
 43
0.0
 10
443.1786075761
 20
-27.5541550953
 10
442.5392824199
 20
-27.1015209285
 10
442.0708764842
 20
-26.5838580477
 10
441.792566363
 20
-26.0223596319
 10
441.7157461055
 20
-25.4400134923
 10
441.843560742
 20
-24.8606609483
 10
442.1707775263
 20
-24.3080207611
 10
442.6840001647
 20
-23.8047180849
 10
443.3622172622
 20
-23.3713581903
 10
444.1776625311
 20
-23.0256828825
 10
445.0969515463
 20
-22.7818441491
 10
446.0824485074
 20
-22.6498247765
 10
447.0938070531
 20
-22.6350296533
 10
448.0896220458
 20
-22.7380644936
 10
449.0291247025
 20
-22.954711039
 10
449.8738516742
 20
-23.2760997544
 10
450.5892197394
 20
-23.689072948
 10
451.1459416455
 20
-24.1767234488
 10
451.5212251321
 20
-24.7190867881
 10
451.6997060493
 20
-25.2939585468
 10
451.6740773673
 20
-25.8778034078
 10
451.4453883274
 20
-26.4467186938
 10
451.0230014857
 20
-26.9774129461
 10
450.4242094093
 20
-27.4481594797
 10
449.673526716
 20
-27.8396858762
 10
448.8016864434
 20
-28.1359629989
 10
447.8443818349
 20
-28.3248612277
 10
446.8408050536
 20
-28.3986470467
 10
445.8320426507
 20
-28.354299656
 10
444.8593934777
 20
-28.193634643
 10
443.9626779058
 20
-27.923229652
 10
443.1786075761
 20
-27.5541550953
  0
LWPOLYLINE
  5
10C
330
1F
100
AcDbEntity
  8
0
  6
Continuous
 62
     1
370
    25
100
AcDbPolyline
 90
       66
 70
   128
 43
0.0
 10
347.4636944804
 20
-65.675140448
 10
347.718152028
 20
-65.5300353954
 10
349.8399697261
 20
-64.4517645285
 10
352.05782644
 20
-63.5529252714
 10
354.3662947026
 20
-62.8357172343
 10
356.7597253051
 20
-62.3018955455
 10
359.2322611219
 20
-61.952766556
 10
361.7778514435
 20
-61.7891846431
 10
364.3902667837
 20
-61.8115501191
 10
367.0631141246
 20
-62.019808252
 10
369.7898525607
 20
-62.4134493991
 10
372.5638093061
 20
-62.9915102546
 10
375.378196024
 20
-63.7525762068
 10
378.2261254383
 20
-64.6947847997
 10
381.1006281885
 20
-65.815830291
 10
383.9946698848
 20
-67.1129692945
 10
386.9011683222
 20
-68.5830274938
 10
389.8130108119
 20
-70.2224074101
 10
392.7230715874
 20
-72.027097206
 10
395.6242292424
 20
-73.9926805032
 10
398.5093841579
 20
-76.1143471899
 10
401.3714758764
 20
-78.3869051923
 10
404.2035003798
 20
-80.8047931801
 10
406.9985272297
 20
-83.3620941762
 10
409.7497165269
 20
-86.0525500365
 10
412.4503356502
 20
-88.8695767648
 10
415.093775732
 20
-91.8062806246
 10
417.6735678316
 20
-94.8554750094
 10
420.1833987654
 20
-98.0096980296
 10
422.6171265564
 20
-101.2612307729
 10
424.968795465
 20
-104.6021161938
 10
427.2326505633
 20
-108.0241785859
 10
429.4031518184
 20
-111.519043589
 10
431.4749876502
 20
-115.0781586829
 10
433.4430879291
 20
-118.6928141165
 10
435.3026363839
 20
-122.3541642222
 10
437.049082388
 20
-126.0532490629
 10
438.6781520954
 20
-129.7810163579
 10
440.1858588995
 20
-133.5283436362
 10
441.568513189
 20
-137.2860605598
 10
442.8227313774
 20
-141.0449713659
 10
443.9454441824
 20
-144.7958773697
 10
444.9339041377
 20
-148.5295994758
 10
445.7856923162
 20
-152.2370006405
 10
446.4987242494
 20
-155.9090082318
 10
447.0712550288
 20
-159.5366362319
 10
447.5018835755
 20
-163.1110072271
 10
447.7895560694
 20
-166.6233741328
 10
447.9335685277
 20
-170.0651415984
 10
447.9335685277
 20
-173.4278870423
 10
447.7895560694
 20
-176.7033812629
 10
447.5018835755
 20
-179.8836085769
 10
447.0712550288
 20
-182.9607864351
 10
446.4987242494
 20
-185.9273844678
 10
445.7856923162
 20
-188.7761429123
 10
444.9339041377
 20
-191.5000903795
 10
443.9454441824
 20
-194.0925609134
 10
442.8227313774
 20
-196.5472103042
 10
441.568513189
 20
-198.8580316134
 10
440.1858588995
 20
-201.0193698742
 10
438.6781520954
 20
-203.0259359296
 10
437.049082388
 20
-204.8728193763
 10
435.3026363839
 20
-206.5555005809
 10
433.443087929
 20
-208.0698617406
 10
431.4749876502
 20
-209.4121969599
 10
430.7068777349
 20
-209.8723056064
  0
LWPOLYLINE
  5
10D
330
1F
100
AcDbEntity
  8
0
  6
Continuous
 62
     1
370
    25
100
AcDbPolyline
 90
       66
 70
   128
 43
0.0
 10
365.140991099
 20
-55.4702543234
 10
365.3958215576
 20
-55.3249339976
 10
367.5176392558
 20
-54.2466631307
 10
369.7354959697
 20
-53.3478238736
 10
372.0439642322
 20
-52.6306158365
 10
374.4373948348
 20
-52.0967941477
 10
376.9099306516
 20
-51.7476651582
 10
379.4555209731
 20
-51.5840832453
 10
382.0679363134
 20
-51.6064487213
 10
384.7407836542
 20
-51.8147068542
 10
387.4675220903
 20
-52.2083480013
 10
390.2414788358
 20
-52.7864088568
 10
393.0558655536
 20
-53.547474809
 10
395.9037949679
 20
-54.4896834019
 10
398.7782977182
 20
-55.6107288932
 10
401.6723394145
 20
-56.9078678968
 10
404.5788378519
 20
-58.377926096
 10
407.4906803416
 20
-60.0173060123
 10
410.4007411171
 20
-61.8219958082
 10
413.3018987721
 20
-63.7875791054
 10
416.1870536876
 20
-65.9092457921
 10
419.0491454061
 20
-68.1818037945
 10
421.8811699095
 20
-70.5996917823
 10
424.6761967594
 20
-73.1569927784
 10
427.4273860565
 20
-75.8474486388
 10
430.1280051798
 20
-78.6644753671
 10
432.7714452617
 20
-81.6011792268
 10
435.3512373613
 20
-84.6503736116
 10
437.861068295
 20
-87.8045966318
 10
440.2947960861
 20
-91.0561293751
 10
442.6464649947
 20
-94.397014796
 10
444.9103200929
 20
-97.8190771881
 10
447.0808213481
 20
-101.3139421912
 10
449.1526571798
 20
-104.8730572851
 10
451.1207574587
 20
-108.4877127187
 10
452.9803059136
 20
-112.1490628244
 10
454.7267519177
 20
-115.8481476651
 10
456.3558216251
 20
-119.5759149601
 10
457.8635284291
 20
-123.3232422384
 10
459.2461827187
 20
-127.0809591621
 10
460.500400907
 20
-130.8398699681
 10
461.6231137121
 20
-134.590775972
 10
462.6115736674
 20
-138.324498078
 10
463.4633618459
 20
-142.0318992427
 10
464.1763937791
 20
-145.703906834
 10
464.7489245585
 20
-149.3315348341
 10
465.1795531052
 20
-152.9059058294
 10
465.4672255991
 20
-156.418272735
 10
465.6112380574
 20
-159.8600402006
 10
465.6112380574
 20
-163.2227856445
 10
465.4672255991
 20
-166.4982798651
 10
465.1795531052
 20
-169.6785071791
 10
464.7489245585
 20
-172.7556850373
 10
464.1763937791
 20
-175.72228307
 10
463.4633618459
 20
-178.5710415145
 10
462.6115736674
 20
-181.2949889817
 10
461.6231137121
 20
-183.8874595156
 10
460.500400907
 20
-186.3421089064
 10
459.2461827187
 20
-188.6529302156
 10
457.8635284291
 20
-190.8142684764
 10
456.3558216251
 20
-192.8208345318
 10
454.7267519177
 20
-194.6677179785
 10
452.9803059136
 20
-196.3503991831
 10
451.1207574587
 20
-197.8647603428
 10
449.1526571798
 20
-199.2070955621
 10
448.384225591
 20
-199.6673899098
  0
ENDSEC
  0
SECTION
  2
OBJECTS
  0
DICTIONARY
  5
C
330
0
100
AcDbDictionary
281
     1
  3
ACAD_GROUP
350
D
  3
ACAD_LAYOUT
350
1A
  3
ACAD_MLINESTYLE
350
17
  3
ACAD_PLOTSETTINGS
350
19
  3
ACAD_PLOTSTYLENAME
350
E
  3
ACAD_SCALELIST
350
47
  3
DWGPROPS
350
10E
  0
DICTIONARY
  5
D
102
{ACAD_REACTORS
330
C
102
}
330
C
100
AcDbDictionary
281
     1
  0
DICTIONARY
  5
1A
102
{ACAD_REACTORS
330
C
102
}
330
C
100
AcDbDictionary
281
     1
  3
Layout1
350
1E
  3
Layout2
350
26
  3
Model
350
22
  0
DICTIONARY
  5
17
102
{ACAD_REACTORS
330
C
102
}
330
C
100
AcDbDictionary
281
     1
  3
Standard
350
18
  0
DICTIONARY
  5
19
102
{ACAD_REACTORS
330
C
102
}
330
C
100
AcDbDictionary
281
     1
  0
ACDBDICTIONARYWDFLT
  5
E
102
{ACAD_REACTORS
330
C
102
}
330
C
100
AcDbDictionary
281
     1
  3
Normal
350
F
100
AcDbDictionaryWithDefault
340
F
  0
DICTIONARY
  5
47
102
{ACAD_REACTORS
330
C
102
}
330
C
100
AcDbDictionary
281
     1
  3
A0
350
48
  3
A1
350
49
  3
A2
350
4A
  3
A3
350
4B
  3
A4
350
4C
  3
A5
350
4D
  3
A6
350
4E
  3
A7
350
4F
  3
A8
350
50
  3
A9
350
51
  3
B0
350
52
  3
B1
350
53
  3
B2
350
54
  3
B3
350
55
  3
B4
350
56
  3
B5
350
57
  3
B6
350
58
  3
B7
350
59
  3
B8
350
5A
  3
B9
350
5B
  3
C0
350
5C
  3
C1
350
5D
  3
C2
350
5E
  3
C3
350
5F
  3
C4
350
60
  3
C5
350
61
  3
C6
350
62
  3
C7
350
63
  3
C8
350
64
  3
C9
350
65
  3
D0
350
66
  3
D1
350
67
  3
D2
350
68
  0
XRECORD
  5
10E
102
{ACAD_REACTORS
330
C
102
}
330
C
100
AcDbXrecord
280
     1
  1
DWGPROPS COOKIE
  2

  3

  4

  6

  7

  8
b.kav
  9

300
=
301
=
302
=
303
=
304
=
305
=
306
=
307
=
308
=
309
=
 40
0.0
 41
2460390.230054479
 42
2460390.230054676
  1

 90
        0
  0
LAYOUT
  5
1E
102
{ACAD_REACTORS
330
1A
102
}
330
1A
100
AcDbPlotSettings
  1

  2
none_device
  4

  6

 40
0.0
 41
0.0
 42
0.0
 43
0.0
 44
0.0
 45
0.0
 46
0.0
 47
0.0
 48
0.0
 49
0.0
140
0.0
141
0.0
142
1.0
143
1.0
 70
   688
 72
     1
 73
     0
 74
     5
  7

 75
    16
147
1.0
148
0.0
149
0.0
100
AcDbLayout
  1
Layout1
 70
     1
 71
     1
 10
0.0
 20
0.0
 11
420.0
 21
297.0
 12
0.0
 22
0.0
 32
0.0
 14
1.0000000000E+20
 24
1.0000000000E+20
 34
1.0000000000E+20
 15
-1.0000000000E+20
 25
-1.0000000000E+20
 35
-1.0000000000E+20
146
0.0
 13
0.0
 23
0.0
 33
0.0
 16
1.0
 26
0.0
 36
0.0
 17
0.0
 27
1.0
 37
0.0
 76
     0
330
1B
  0
LAYOUT
  5
26
102
{ACAD_REACTORS
330
1A
102
}
330
1A
100
AcDbPlotSettings
  1

  2
none_device
  4

  6

 40
0.0
 41
0.0
 42
0.0
 43
0.0
 44
0.0
 45
0.0
 46
0.0
 47
0.0
 48
0.0
 49
0.0
140
0.0
141
0.0
142
1.0
143
1.0
 70
   688
 72
     1
 73
     0
 74
     5
  7

 75
    16
147
1.0
148
0.0
149
0.0
100
AcDbLayout
  1
Layout2
 70
     1
 71
     2
 10
0.0
 20
0.0
 11
0.0
 21
0.0
 12
0.0
 22
0.0
 32
0.0
 14
0.0
 24
0.0
 34
0.0
 15
0.0
 25
0.0
 35
0.0
146
0.0
 13
0.0
 23
0.0
 33
0.0
 16
1.0
 26
0.0
 36
0.0
 17
0.0
 27
1.0
 37
0.0
 76
     0
330
23
  0
LAYOUT
  5
22
102
{ACAD_REACTORS
330
1A
102
}
330
1A
100
AcDbPlotSettings
  1

  2
none_device
  4
Letter_(8.50_x_11.00_Inches)
  6

 40
6.35
 41
6.35
 42
6.35000508
 43
6.35000508
 44
215.9
 45
279.4
 46
0.0
 47
0.0
 48
0.0
 49
0.0
140
0.0
141
0.0
142
1.0
143
1.0
 70
  1712
 72
     1
 73
     0
 74
     0
  7

 75
     0
147
1.0
148
0.0
149
0.0
100
AcDbLayout
  1
Model
 70
     1
 71
     0
 10
0.0
 20
0.0
 11
279.4
 21
215.9
 12
0.0
 22
0.0
 32
0.0
 14
0.0
 24
0.0
 34
0.0
 15
279.4
 25
215.9
 35
0.0
146
0.0
 13
0.0
 23
0.0
 33
0.0
 16
1.0
 26
0.0
 36
0.0
 17
0.0
 27
1.0
 37
0.0
 76
     0
330
1F
331
29
  0
MLINESTYLE
  5
18
102
{ACAD_REACTORS
330
17
102
}
330
17
100
AcDbMlineStyle
  2
Standard
 70
     0
  3

 62
   256
 51
90.0
 52
90.0
 71
     2
 49
0.5
 62
   256
  6
BYLAYER
 49
-0.5
 62
   256
  6
BYLAYER
  0
ACDBPLACEHOLDER
  5
F
102
{ACAD_REACTORS
330
E
102
}
330
E
  0
SCALE
  5
48
102
{ACAD_REACTORS
330
47
102
}
330
47
100
AcDbScale
 70
     0
300
1:1
140
1.0
141
1.0
290
     1
  0
SCALE
  5
49
102
{ACAD_REACTORS
330
47
102
}
330
47
100
AcDbScale
 70
     0
300
1:2
140
1.0
141
2.0
290
     0
  0
SCALE
  5
4A
102
{ACAD_REACTORS
330
47
102
}
330
47
100
AcDbScale
 70
     0
300
1:4
140
1.0
141
4.0
290
     0
  0
SCALE
  5
4B
102
{ACAD_REACTORS
330
47
102
}
330
47
100
AcDbScale
 70
     0
300
1:5
140
1.0
141
5.0
290
     0
  0
SCALE
  5
4C
102
{ACAD_REACTORS
330
47
102
}
330
47
100
AcDbScale
 70
     0
300
1:8
140
1.0
141
8.0
290
     0
  0
SCALE
  5
4D
102
{ACAD_REACTORS
330
47
102
}
330
47
100
AcDbScale
 70
     0
300
1:10
140
1.0
141
10.0
290
     0
  0
SCALE
  5
4E
102
{ACAD_REACTORS
330
47
102
}
330
47
100
AcDbScale
 70
     0
300
1:16
140
1.0
141
16.0
290
     0
  0
SCALE
  5
4F
102
{ACAD_REACTORS
330
47
102
}
330
47
100
AcDbScale
 70
     0
300
1:20
140
1.0
141
20.0
290
     0
  0
SCALE
  5
50
102
{ACAD_REACTORS
330
47
102
}
330
47
100
AcDbScale
 70
     0
300
1:30
140
1.0
141
30.0
290
     0
  0
SCALE
  5
51
102
{ACAD_REACTORS
330
47
102
}
330
47
100
AcDbScale
 70
     0
300
1:40
140
1.0
141
40.0
290
     0
  0
SCALE
  5
52
102
{ACAD_REACTORS
330
47
102
}
330
47
100
AcDbScale
 70
     0
300
1:50
140
1.0
141
50.0
290
     0
  0
SCALE
  5
53
102
{ACAD_REACTORS
330
47
102
}
330
47
100
AcDbScale
 70
     0
300
1:100
140
1.0
141
100.0
290
     0
  0
SCALE
  5
54
102
{ACAD_REACTORS
330
47
102
}
330
47
100
AcDbScale
 70
     0
300
2:1
140
2.0
141
1.0
290
     0
  0
SCALE
  5
55
102
{ACAD_REACTORS
330
47
102
}
330
47
100
AcDbScale
 70
     0
300
4:1
140
4.0
141
1.0
290
     0
  0
SCALE
  5
56
102
{ACAD_REACTORS
330
47
102
}
330
47
100
AcDbScale
 70
     0
300
8:1
140
8.0
141
1.0
290
     0
  0
SCALE
  5
57
102
{ACAD_REACTORS
330
47
102
}
330
47
100
AcDbScale
 70
     0
300
10:1
140
10.0
141
1.0
290
     0
  0
SCALE
  5
58
102
{ACAD_REACTORS
330
47
102
}
330
47
100
AcDbScale
 70
     0
300
100:1
140
100.0
141
1.0
290
     0
  0
SCALE
  5
59
102
{ACAD_REACTORS
330
47
102
}
330
47
100
AcDbScale
 70
     0
300
1/128" = 1'-0"
140
0.0078125
141
12.0
290
     0
  0
SCALE
  5
5A
102
{ACAD_REACTORS
330
47
102
}
330
47
100
AcDbScale
 70
     0
300
1/64" = 1'-0"
140
0.015625
141
12.0
290
     0
  0
SCALE
  5
5B
102
{ACAD_REACTORS
330
47
102
}
330
47
100
AcDbScale
 70
     0
300
1/32" = 1'-0"
140
0.03125
141
12.0
290
     0
  0
SCALE
  5
5C
102
{ACAD_REACTORS
330
47
102
}
330
47
100
AcDbScale
 70
     0
300
1/16" = 1'-0"
140
0.0625
141
12.0
290
     0
  0
SCALE
  5
5D
102
{ACAD_REACTORS
330
47
102
}
330
47
100
AcDbScale
 70
     0
300
3/32" = 1'-0"
140
0.09375
141
12.0
290
     0
  0
SCALE
  5
5E
102
{ACAD_REACTORS
330
47
102
}
330
47
100
AcDbScale
 70
     0
300
1/8" = 1'-0"
140
0.125
141
12.0
290
     0
  0
SCALE
  5
5F
102
{ACAD_REACTORS
330
47
102
}
330
47
100
AcDbScale
 70
     0
300
3/16" = 1'-0"
140
0.1875
141
12.0
290
     0
  0
SCALE
  5
60
102
{ACAD_REACTORS
330
47
102
}
330
47
100
AcDbScale
 70
     0
300
1/4" = 1'-0"
140
0.25
141
12.0
290
     0
  0
SCALE
  5
61
102
{ACAD_REACTORS
330
47
102
}
330
47
100
AcDbScale
 70
     0
300
3/8" = 1'-0"
140
0.375
141
12.0
290
     0
  0
SCALE
  5
62
102
{ACAD_REACTORS
330
47
102
}
330
47
100
AcDbScale
 70
     0
300
1/2" = 1'-0"
140
0.5
141
12.0
290
     0
  0
SCALE
  5
63
102
{ACAD_REACTORS
330
47
102
}
330
47
100
AcDbScale
 70
     0
300
3/4" = 1'-0"
140
0.75
141
12.0
290
     0
  0
SCALE
  5
64
102
{ACAD_REACTORS
330
47
102
}
330
47
100
AcDbScale
 70
     0
300
1" = 1'-0"
140
1.0
141
12.0
290
     0
  0
SCALE
  5
65
102
{ACAD_REACTORS
330
47
102
}
330
47
100
AcDbScale
 70
     0
300
1-1/2" = 1'-0"
140
1.5
141
12.0
290
     0
  0
SCALE
  5
66
102
{ACAD_REACTORS
330
47
102
}
330
47
100
AcDbScale
 70
     0
300
3" = 1'-0"
140
3.0
141
12.0
290
     0
  0
SCALE
  5
67
102
{ACAD_REACTORS
330
47
102
}
330
47
100
AcDbScale
 70
     0
300
6" = 1'-0"
140
6.0
141
12.0
290
     0
  0
SCALE
  5
68
102
{ACAD_REACTORS
330
47
102
}
330
47
100
AcDbScale
 70
     0
300
1'-0" = 1'-0"
140
12.0
141
12.0
290
     0
  0
ENDSEC
  0
EOF
